Oops, an error
Loading. Please wait.
We have Chord Pro version of Aqualung.
It's the closest thing you can get to the original song and it has interactive parts. Check out the tab »
×
45,980 views 33 this week
2 commentsread comments
1 2 3 4 5
x 17
add to favorites
×
Save as Personal and add changes to this tab that will be seen only by you. Learn more ›
×
You can save this tab as Personal to edit and correct it or add notes. All changes will be seen only by you. Learn more »
launch autoscroll
font size
0
reset
guitar tuner
backing track
0:00
0:00
edit
Autoscroll
slow
fast
+/-
esc
set tempo
stop
Author
Unregistered
Aqualung
Jethro Tull
                                                      Transcribed by Paul Sipio


    0:00
G---|-----------------------|-----------------------|---------------------------|
D---|-----------------------|-----------------------|---------------------------|
A---|--5-----1--3--4--3-----|--5-----1--3--4--3-----|--5-----1--3--4--3---------|
E---|-----3-----------------|-----3-----------------|-----3---------------------|

G---|------------------------------------------|--------------------------------|
D---|------------------------------------------|--------------------10----------|
A---|--4-----4--4-----4--4/---6--6-----6--6/8--|--8-----8--8-----8------8-------|
E---|------------------------------------------|--------------------------------|

G------------------|---------------------------------------------||-------------|
D---10--11---------|----------------------11-----11--9-----7-----||*------------|
A-----------11-----|--13--13--13--13--11----------------9--------||*--5---------|
E------------------|---------------------------------------------||------3------|

G------------------|-------------------------------------------|----------------|
D------------------|-------------------------------------------|----------------|
A---1--3--4--3-----|--4--4-----4--4-----4/6--6--6-----6--6--7--|--8-----8--8----|
E------------------|-------------------------------------------|----------------|

G----------------------------------|--------------------------------------------|
D------------10-----10--11---------|----------------------11-----11--9-----7----|
A---8-----8------8----------11~~~--|--13--13--13--13--11----------------9-------|
E----------------------------------|--------------------------------------------|


         Guitar & Vocals   1:19
G----||--------------------|----------------------------------------------------|
D---*||--------------------|--5-----3--------------------3-----1----------------|
A---*||--------------------|--------------5-----2--3-----------------3----------|
E----||--------------------|-----------------3-----------------------------1----|

G------|--------------------------------------------------|---------------------|
D------|-----------------1--3-----------2-----3-----5-----|--------1------------|
A------|--------1-----3-----------3-----------------------|--3-----------3------|
E------|--1--0--------------------------------------------|---------------------|

G-----------------------------------|-------------------------------------------|
D---1--3/---5-----3-----------------|--3-----1----------------------------------|
A-----------------------3-----2--3--|--------------3-----------0-----1-----3----|
E--------------------------3--------|--------------------1----------------------|

G------------|-------------------------------------------------|----------------|
D------1-----|--3/---5--3-----1--------------------------1--3--|--5-----3-------|
A------------|-------------------3-----------0-----1--3--------|----------------|
E------------|-------------------------1-----------------------|----------------|

G------------------------------------------|------------------------------------|
D------------------3-----1-----------------|-----------------1--3---------------|
A---5-----2--3-----------------3-----------|-----0--1-----3-----------3---------|
E------3-----------------------------1-----|--1---------------------------------|

G---------------------|-------------------------------------------------|-------|
D---2-----3-----5-----|--------1--------1--3/4--5-----3-----------------|--3----|
A---------------------|--3-----------3----------------------5-----2--3--|-------|
E---------------------|----------------------------------------3--------|-------|

G-----------------------------------------------|-------------------------------|
D------1--------------------------------1--3/4--|--5-----3-----------------3----|
A------------3-----------0-----1-----3----------|-----------5-----2--3----------|
E------------------1--1-------------------------|--------------3----------------|

G------------------------|-------------------------------------------------|----|
D------1-----------------|----------------1--3-----------2-----3-----5-----|----|
A------------3-----------|-----0--1/2--3-----------3-----------------------|----|
E------------------1-----|--1----------------------------------------------|----|

G--------------------------------------------------|----------------------------|
D---------1--------1--3/4--5-----3-----------------|--3-----1-------------------|
A---3-----------3----------------------5-----2--3--|--------------3-------------|
E-----------------------------------------3--------|--------------------1-------|

G---------------------------|---------------------------------------------------|
D---------------------1-----|--3-----1-----------------------------------1------|
A---0-----1-----3-----------|--------------3-----------0-----1-----3------------|
E---------------------------|--------------------1------------------------------|


       2:14
G------|-----------------|-----------------|-----------------|------------------|
D------|-----------------|--3--3-----3-----|--3--------------|--5--5-----5------|
A------|-----------------|-----------------|-----------------|------------------|
E------|--3--------------|-----------------|-----------------|------------------|

G------|-----------------|-----------------|-----------------|------------------|
D------|--5--------------|--3--3-----3-----|--3--------------|--5--5-----5------|
A------|-----------------|-----------------|-----------------|------------------|
E------|-----------------|-----------------|-----------------|------------------|

G------|--------------------------|--------------------------|------------------|
D------|--5--3--------------------|--3-----1-----------------|------------------|
A------|--------5--------1--3-----|--------------3-----------|-----0--1--3------|
E------|-----------3--------------|--------------------1-----|--1---------------|

G------------------|--------------------------|--------------------------|------|
D------1--1--3-----|--5-----3-----------------|--------1--------1--------|------|
A------------------|--------------5-----------|--3--------3--------3-----|------|
E------------------|--------------------3-----|--------------------------|------|

G---------------------------|--------------------------|------------------------|
D---5--3--------------------|--3-----1-----------------|--------------1---------|
A---------5-----------1-----|-----------3--------0-----|--1-----3---------------|
E---------------3-----------|-----------------1--------|------------------------|

G---------|--------------------------|-------------------------|----------------|
D---3-----|--3--1--------------------|--------1-----3-----3/4--|--5-------------|
A---------|--------3--------0--1-----|--3----------------------|----------------|
E---------|-----------1--------------|-------------------------|----------------|

G------|-----------------|-----------------|-----------------|------------------|
D------|--3--3-----3-----|--3--------------|-----------------|--------1---------|
A------|-----------------|-----------------|--3--3-----3-----|--3--------3------|
E------|-----------------|-----------------|-----------------|------------------|

G---------------|--------------------------|--------------------------|---------|
D------1--------|--5--3--------------------|--3-----1-----------------|---------|
A---------3-----|--------5-----2-----3-----|-----------3--------0-----|--1------|
E---------------|-----------3--------------|-----------------1--------|---------|

G-----------------------|-----------------|-----------------|-------------------|
D------------1-----3/4--|--5--------------|--3--3-----3-----|--3----------------|
A------3----------------|-----------------|-----------------|-------------------|
E-----------------------|-----------------|-----------------|-------------------|

G---|-----------------|--------------------------|------------------------------|
D---|-----------------|--------1--------1--------|--5--3------------------------|
A---|--3--3-----3-----|--3--------3--------3-----|--------5-----2-----3---------|
E---|-----------------|--------------------------|-----------3------------------|

G---|--------------------------|-------------------------||---------------------|
D---|--3-----1-----------------|--------------1-----3/4--||*--5--3--------------|
A---|-----------3--------0-----|--1-----3----------------||*--------5-----------|
E---|-----------------1--------|-------------------------||------------3--------|

G------------|--------------------------|--------------------------|------------|
D------------|--3-----1-----------------|-----------------1--3-----|------------|
A---2--3-----|--------------3-----------|-----0--1--3--------------|--3---------|
E------------|--------------------1-----|--1-----------------------|------------|

G---------------------|--------------------------|------------------------------|
D---2-----3-----5-----|--------1--------1--------|--5--3------------------------|
A---------------------|--3--------3--------3-----|--------5-----3-----5---------|
E---------------------|--------------------------|-----------3------------------|

G---|--------------------------|---------------------------||-------------------|
D---|--3-----1-----------------|--------------1-----3-----*||--3--1-------------|
A---|-----------3--------0-----|--1-----3-----------------*||--------3----------|
E---|-----------------1--------|---------------------------||-----------1-------|


                                        3:26
G------------|--------------------------|-----------------|---------------------|
D------------|--------1-----3-----3-----|--5--------------|--3------------------|
A---0--1-----|--3-----------------------|-----------------|---------------------|
E------------|--------------------------|-----------------|---------------------|

G---|-----------------|-----------------|-----------------|---------------------|
D---|--3--------------|-----------------|--1--------------|---------------------|
A---|-----------------|--3--------------|-----------------|--5------------------|
E---|-----------------|-----------------|-----------------|---------------------|


G---|--------------------|--------------------|--------------------------|------|
D---|--3--------3--------|--3--------3--------|--3-----3-----3-----3-----|------|
A---|--------------------|--------------------|--------------------------|------|
E---|--------------------|--------------------|--------------------------|------|

G---------------------------|-------------------------|-------------------------|
D---3-----3-----3-----3-----|--5-----3----------------|--------5-----6-----8----|
A---------------------------|-----------5-------------|--6----------------------|
E---------------------------|-----------------3--6/8--|-------------------------|

G-------|--------------------------|--------------------------|-----------------|
D---\---|--3--1--------------------|--5-----3-----------------|-----------------|
A-------|--------3--------0--1-----|--------------5-----------|--------2/3------|
E-------|-----------1--------------|--------------------3-----|--3--------------|

G---------------|-------------------------|--------------------------|----------|
D---------3-----|--------5-----6-----8\---|--3--1--------------------|--5-------|
A---4--5-----5--|--6----------------------|--------3--------0--1-----|----------|
E---------------|-------------------------|-----------1--------------|----------|

G---------------------|--------------------------|-------------------------|----|
D---3-----------------|-----------------3--5-----|-------5-----6-----8-----|----|
A---------5-----------|-----2--3--5--------------|/6-----------------------|----|
E---------------3-----|--3-----------------------|-------------------------|----|

G---------------------------|--------------------------|------------------------|
D---3--1--------------------|--5-----3-----------------|-------------------3----|
A---------3-----------1-----|--------------5-----------|--------2/3--4--5-------|
E------------1-----1--------|--------------------3-----|--3---------------------|

G------|-------------------------|-----------------------|----------------------|
D------|--------5-----6-----8\---|--3--1-----------------|--------1-----3-------|
A---5--|--6----------------------|--------3--------0--1--|--3-------------------|
E------|-------------------------|-----------1-----------|----------------------|

G---------|--------------------------|-------------------------|----------------|
D---3-----|--3--1--------------------|--------1-----3-----3/4--|--5--3----------|
A---------|--------3--------0--1-----|--3----------------------|--------5-------|
E---------|-----------1--------------|-------------------------|-----------3----|


G--------------|-------------------------|--------------------------|-----------|
D--------------|--------5-----6-----8\---|--3--1--------------------|--5--------|
A------2--3/5--|--6----------------------|--------3--------0--1-----|-----------|
E--------------|-------------------------|-----------1--------------|-----------|

G---------------------|--------------------------|-------------------------|----|
D---3-----------------|--------------------3-----|--------5-----6-----8\---|----|
A---------5-----------|--------2--3-----5-----5--|--6----------------------|----|
E---------------3-----|--3-----------------------|-------------------------|----|

G--------------------------|--------------------------|-------------------------|
D---3--1-------------------|--5-----3-----------------|--------------------3----|
A---------3--------0--1/3--|--------------5-----1-----|--------2--3-----5-------|
E------------1-------------|--------------------------|--3----------------------|

G------|-------------------------|--------------------------|-------------------|
D------|--------5-----6-----8\---|--3-----1-----------------|--5-----3----------|
A---5--|--6----------------------|-----------3--------0-----|--------------5----|
E------|-------------------------|-----------------1--------|-------------------|

G------------|-------------------------|-------------------------|--------------|
D------------|----------------3--------|--------5-----6-----8\---|--3-----1-----|
A------------|--------3--4/5-----5-----|--6----------------------|--------------|
E------3-----|--3--6-------------------|-------------------------|--------------|

G------------------|--------------------------|--------------------------|------|
D------------------|--------------1-----3-----|--3--1--------------------|------|
A---3--------0-----|--1-----3-----------------|--------3--------0--1-----|------|
E---------1--------|--------------------------|-----------1--------------|------|


                                                Guitar & Vocals   5:11
G---------------------------|----------------|--------------------|-------------|
D---------1-----3-----3-----|--3h5-----------|--------------------|-------------|
A---3-----------------------|----------------|--------------------|--5-----1----|
E---------------------------|----------------|--------------------|-----3-------|

G---------------|-----------------------|-----------------------|---------------|
D---------------|-----------------------|-----------------------|---------------|
A---3--4--3-----|--5-----1--3--4--3-----|--5-----1--3--4--3-----|--4-----4------|
E---------------|-----3-----------------|-----3-----------------|---------------|


G----------------------------------|--------------------------------------------|
D----------------------------------|--------------------10-----10--11-----------|
A---4-----4--4/---6--6-----6--6/8--|--8-----8--8-----8------8----------11-------|
E----------------------------------|--------------------------------------------|

G---|---------------------------------------------||----------------------------|
D---|----------------------11-----11--9-----7-----||*---------------------------|
A---|--13--13--13--13--11----------------9--------||*--5-----1--3--4--3---------|
E---|---------------------------------------------||------3---------------------|

G---|-------------------------------------------|-------------------------------|
D---|-------------------------------------------|-----------------------10------|
A---|--4--4-----4--4-----4/6--6--6-----6--6--7--|--8-----8--8--8-----8----------|
E---|-------------------------------------------|-------------------------------|

G---------------------|-------------------------------------------||------------|
D------10--11---------|----------------------11-----11--9-----7--*||------------|
A---8----------11~~~--|--13--13--13--13--11----------------9-----*||--5---------|
E---------------------|-------------------------------------------||-----3------|

G------------------|-----------------------|-----------------------|------------|
D------------------|-----------------------|-----------------------|------------|
A---1--3--4--3-----|--5-----1--3--4--3-----|--5-----1--3--4--3-----|--4---------|
E------------------|-----3-----------------|-----3-----------------|------------|

G------------|-------------------------------|----------------||
D------------|--------10--------10-----------|----------------||
A------6-----|--8------------8---------8-----|--8\------------||
E------------|-------------------------------|----------------||



************************************

| /  Slide up
| *  Natural harmonic
| ~  Vibrato
| \  Slide down
| h  Hammer-on

************************************

            
            
Suggest correction
Creating personal tab
Creating personal tab
You can edit any tab online and save it as your Personal.

You can edit, replace or remove any tab part or add personal notes – all changes will be seen only by you.

Personal tabs can be accessed anytime from any device, even offline.
Learn more »
comments
print report bad tab
2 comments total.
0 reply
joesmackidy 51 Nov 20, 2008 05:34 PM

Hey just saying, I personally think that the intro and the other part like it sound better if it's played with a

A|--0---3--- both sustained

0 reply
fbjunkandother 10 Dec 03, 2016 08:58 PM

at the end of the third section, right before the repeat, the tab is missing two bars. I believe it is the last two bars right before the repeat (pasted at the end) played again, but I could be wrong. either way two bars are missing.
G---|--------------------------|-------------------------|
D---|--3-----1-----------------|--------------1-----3/4--|
A---|-----------3--------0-----|--1-----3----------------|
E---|-----------------1--------|-------------------------|

guest
Wanna post a correction for this tab? Suggest correction