Oops, an error
Loading. Please wait.

Bouree bass

version 3
version 3

Whole song

Interactive

3,902 views 15 this week
3 commentsread comments
1 2 3 4 5
x 3
add to favorites
×
Save as Personal and add changes to this tab that will be seen only by you. Learn more ›
×
You can save this tab as Personal to edit and correct it or add notes. All changes will be seen only by you. Learn more »
launch autoscroll
font size
0
reset
guitar tuner
edit
Autoscroll
slow
fast
+/-
esc
set tempo
stop
Author
Difficulty
Bouree (Jethro Tull)

I made a few corrections to my previous tab.
Tabbed by Bruce51

Verse 1:
G|-7-------------------------------------------------|
D|--------7-----------------7--10------7-----------7-|
A|------8---8--7--8----7--8-------7-10---8-7-----8---|
E|---10-------------10------------------------10-----|

G|---------------------------------------------|
D|------7-----------------7--10--------10------|
A|----8---8--7--8----7--8-------10---8----8--7-|
E|-10-------------10---------------8-----------|

G|------------------------------------------------|
D|------7-----------------7--10------7----------7-|
A|----8---8--7--8----7--8-------10-----8-7----8---|
E|-10-------------10---------------8-------10-----|

G|----------------------------------------------|
D|------7-----------------7--10---------10------|
A|----8---8--7--8----7--8----------7--8----8--7-|
E|-10-------------10------------10--------------|

Verse 2:
G|-----------------------------------------|
D|------7-----------------7--10---7--------|
A|----8---8--7--8----7--8-----------7----8-|
E|-10-------------10------------8-----10---|

G|------------------------------------------|
D|------7------7----------7--10------10-----|
A|----8---8--7----------8-------7--8----8-7-|
E|-10------------10--10---------------------|

G|------------------------------------------|
D|--------7-----------------------7-------7-|
A|----------------7----8---7----8-----------|
E|-10--10---10--8---10---8---10-----9--10---|

G|----------------------------------------|
D|------7-----------------------7---------|
A|----8---------7----8---7----8---7-------|
E|-10-----10--8---10---8---10-------9--10-|

Flute solo:
G|----------------------------------------|
D|----------------------------------------|
A|----------------------------------------|
E|-10----------------------10-------------|

G|----------10-----------------------10---|
D|-12-10--------------------12-10---------|
A|-------12-----------------------12------|
E|----------------------------------------|

Jammimg:
G|-----------------------------------------------|
D|-------------------------------12--------------|
A|--------12--------12----10--10----10--10-------|
E|-10--10----10--10----10------------------8--9--|x4

Transition to solo:
G|--------7------------------------------------|
D|------------7---------------------------7----|
A|--------------10--8-------7--10-------8------|
E|-10--10-------------10--8-------8--10-----10-|

G|------------------------------------------|
D|-----------------7----7---------------7---|
A|---7--10-------8--------10--8-------8---8-|
E|-8-------8--10-----10---------8--10-------|

G|--------------------------------------------|
D|-------7---7----------------------------7---|
A|-----8---8---10--8-------7--10-------8------|
E|-10----------------10--8-------8--10-----10-|

G|--------------------------------------------|
D|-----------------7----7--7------------------|
A|---7--10-------8-----------8--7-------------|
E|-8-------8--10-----10------------10--10--10-|

Bass solo:
G|-7----------------------------------|
D|-----------7--8--7-------------7----|
A|------7--8---------8--7--8--10------|
E|---10----------------------------10-|

G|-----------7----9------9--12--9---------------|
D|---------7---7---10----------------11--12--12-|
A|----7--8------------10----------12------------|
E|-10-------------------------------------------|

G|-------------------------------------------|
D|-12-----------------------------------7----|
A|---8--10--11--12---------8--7--8--10-------|
E|------------------9--10-----------------10-|

G|--------------------------------------|
D|---------7--10---10--8--------10---10-|
A|----7--8-------8-------10---8----8----|
E|-10-----------------------8-----------|

G|-12-12-12-10--10-10-10--9---------------------|
D|-10-10-10-12---8--8--8-10---10-11-12-12-12-10-|
A|----------------------------10-11-12-12-12-10-|
E|----------------------------------------------|

G|------------------------------------------|
D|-10-10-10--7------------------------------|
A|--8--8--8--8---------12-12-12-12-12-12-12-|
E|--------------8-9-10-10-10-10-10-10-10-10-|

G|-12-12-10--10-10-10--9---------------------|
D|-10-10-12---8--8--8-10---10-11-12-12-12-10-|
A|-------------------------10-11-12-12-12-10-|
E|-------------------------------------------|

G|------------------------------------------|
D|-10-10-10--7------------------------10-10-|
A|--8--8--8--8---------12-12-12-12-12--8--8-|
E|--------------8-9-10-10-10-10-10-10-------|

G|---------------------------|
D|-12------------------10-10-|
A|-12---12-12-12-12-12--8--8-|
E|------10-10-10-10-10-------|

G|-12--12--10--10--9-----10---------|
D|-10--10--12--12----10--10--10-----|
A|---------------------------10--12-|
E|-------------------------------10-|

Transition to Verse 1:
G|-7---------------------|
D|--------7--------------|
A|------8---8--7--8----8-|
E|---10-------------10---|

Repeat Verse 1

Ending:
G|------------------------------------------------|
D|------7-----------------7--10-------7-----------|
A|----8---8--7--8----7--8-------7--10---8--7----8-|
E|-10-------------10-------------------------10---|

G|---------------------------------------------|
D|------7-------------------7------------------|
A|----8---8--7--8----7--8----------------------|
E|-10-------------10----------------10------10-|

Suggest correction
Creating personal tab
Creating personal tab
You can edit any tab online and save it as your Personal.

You can edit, replace or remove any tab part or add personal notes – all changes will be seen only by you.

Personal tabs can be accessed anytime from any device, even offline.
Learn more »
Give kudos to tab author, rate the tab!
1 2 3 4 5
comments
print report bad tab
3 comments total.
0 reply
bruce51 107 Aug 26, 2013 03:41 PM, edited on February 14 2016, 02:37 pm

The needed corrections have been made.

0 reply
Stub_Mandrel 11 Feb 07, 2015 09:51 AM

Full of unnecessary finger stretching!

0 reply
bruce51 107 Feb 11, 2016 06:53 AM, edited on February 14 2016, 02:39 pm

The needed corrections have been made.

guest
You may want to rate the tab now too:
select rating
Wanna post a correction for this tab? Suggest correction