Oops, an error
Loading. Please wait.

Driving Song bass

1,436 views 1 this week
no commentswrite comment
1 2 3 4 5
1 last vote to show rating
add to favorites
×
Save as Personal and add changes to this tab that will be seen only by you. Learn more ›
×
You can save this tab as Personal to edit and correct it or add notes. All changes will be seen only by you. Learn more »
launch autoscroll
font size
0
reset
guitar tuner
edit
Autoscroll
slow
fast
+/-
esc
set tempo
stop
Author
Jethro Tull
Driving Song
Standard Tuning
justslee23@comcast.net

Verse
     +     +     +     +     +     +     +     +     +     +     +     +
|------5------------------|----5------------------|-----------------------|
|--6-7---6-7--------------|6-7---6-7--------------|-----------------------|
|------------6-7-5-7------|----------6-7-5-7------|--5-----5-----5--------|
|--------------------5----|------------------5----|-----------5----8p7p5--|x2

     +     +     +     +     +     +     +     +     +     +     +     +     +     +     +     +  
|------5------------------|----5------------------|----------------------------------------------|
|--6-7---6-7--------------|6-7---6-7--------------|----------------------------------------------|
|------------6-7-5-7------|----------6-7-5-7------|--5-----5-----5-----5-----5-----5-----5-----7-|
|--------------------5----|------------------5----|-----------------------5----------------------|


Verse (0:23)


Main Riff (0:47)
     +     +     +     +     +     +     +     +
|------5------------------|----5------------------|
|--6-7---6-7--------------|6-7---6-7--------------|
|------------6-7-5-7------|----------6-7-5-7------|
|--------------------5----|------------------5----|


Guitar Solo (0:52)
  +     +     +     +     +     +     +     +     +     +     +     +     +     +     +     +
|-------------7-5---------------------7-5--------------------------------------------------------|
|-----------------7-5-6-7-----------------7-5-6-7-------------7-5---------------------7-5--------|
|-5--5--8-----------------5--5--8---------------------------------7-5-6-7-----------------7-5-6-7|
|-------------------------------------------------5--5--8-----------------5--5--8----------------|
x4


Verse (1:30) with exception: play the last note as 5 (or D) instead of a 7 (or E)


Bam! (drummer transitions to solo)
     +     +     +     +     +     +     +     +  
|-------------------------|-----------------------|
|-------------------------|-----------------------|
|----7\-------------------|-----------------------|
|-------------------------|-----------------------|


Ian's Solo (1:58)                                            
     +     +     +     +                                       
|----------------------------|   |---------------------|   
|----------------7-5---------|   |-77-7--7-5--7-5-7-5--|    
|--------------------7-5-6-7-|   |---------------------|     
|----5--5--8-----------------|x3 |---------------------|     

     +     +     +     +     +     +     +     +     +     +     +     +     + 
|----------------------------------------------------------------------------------|
|----7--7--5-----------5-6-7-------7--7--5-----------5-----7--7--5-----------5-6-7-|
|-------------7--5-6-7----------------------7--5-6-7---7-6----------7--5-6-7-------|
|----------------------------------------------------------------------------------|

                                                     
|---------------------|
|-77-7--7-5--7-5-7-5--|
|---------------------|     
|---------------------|     


Fade out (improvise or do whatever)
|----------------------------|
|----------------7-5---------|
|--------------------7-5-6-7-|
|----5--5--8-----------------|
Suggest correction
Creating personal tab
Creating personal tab
You can edit any tab online and save it as your Personal.

You can edit, replace or remove any tab part or add personal notes – all changes will be seen only by you.

Personal tabs can be accessed anytime from any device, even offline.
Learn more »
Give kudos to tab author, rate the tab!
1 2 3 4 5
comments
print report bad tab
guest
You may want to rate the tab now too:
select rating
Wanna post a correction for this tab? Suggest correction