Oops, an error
Loading. Please wait.

Hymn 43 Tab

version 1
version 1

Whole song

3,920 views 6 this week
2 commentsread comments
1 2 3 4 5
x 4
add to favorites
launch autoscroll
font size
0
reset
how to read this tab
guitar tuner
Autoscroll
slow
fast
+/-
esc
set tempo
stop
Help us to improve Ultimate-Guitar.com Take our survey!
×
Author
There's no real good tabs for this song and I still haven't figured out the solo but 
is more or less it

E|----------------------------|
B|----------------------------|
G|----------------------------|
D|----------------------------|
A|7---7--7--5---2--10-12------|
E|5---5--5--3---0--8--10------|
“and jesus save me”

E|--x-x---x-x-x---x-x-x---x-x-x---|
B|--x-x---x-x-x---x-x-x---x-x-x---|
G|--x-x---x-x-x---x-x-x---x-x-x---|
D|--x-x---x-x-x---x-x-x---x-x-x---|
A|--x-x---x-x-x---x-x-x---x-x-x---|
E|--x-x---x-x-x---x-x-x---x-x-x---|
Suggest correction
comments
print report bad tab
2 comments total.
0 reply
adamjimenstein 164 Mar 18, 2012 06:10 PM

I think the main riff goes something like this

 e|---------------------------------------------------------------------------|
B|---------------------------------------------------------------------------|
G|---------------------------------------------------------------------------|
D|---------------------------3----5------------------------------------------|
A|------5--5---5---3---0-----------------------------------------------------|
E|---------------------------------------------------------------------------|

0 reply
toby5126 10 Sep 03, 2014 02:47 PM

Tab incomplete. Clearly wrong.

guest
You may want to rate the tab now too:
select rating
Wanna post a correction for this tab? Suggest correction