Oops, an error
Loading. Please wait.

Jack-A-Lynn Tab

810 views 9 this week
no commentswrite comment
1 2 3 4 5
3 more votes to show rating
add to favorites
launch autoscroll
font size
0
reset
how to read this tab
guitar tuner
Autoscroll
slow
fast
+/-
esc
set tempo
stop
Help us to improve Ultimate-Guitar.com Take our survey!
×
Difficulty
novice
################################################################
# The following is the author's own interpretation of the song #
# to be used for studying or private use only. Downloaded from #
# www.TabGuitarLessons.com. FREE GUITAR SOFTWARE + LOTS MORE!  #
# Home of the 60 minute fretboard memory technique. You'll     #
# memorise ALL the notes and positions on the fretboard in 60  #
# minutes or less. visit www.TabGuitarLessons.com today.       #
################################################################
Jack-A-Lynn
 Ian Anderson
 (transcribed by Paul Tarvydas, tarvydas@tsctrl.guild.org)
 g-|
 D-|
 Bb|
 F-|
 C-|
 G-|

 6/8 time
 capo at 3rd fret (0 - 3rd fret open)

 Musical chord names are written above the staff.
 Capo-relative chords are written below the staff.


      1     2     3     4     5     6
   : Gm                       Gm Gm               Gm Gm             Gm Gm
 g-|--0-----------------------0--0--------|--------0--0--------------0--0--|--|
 D-|--0-----------------------0--0--------|--------0--0--------------0--0--|--|
 Bb|--0-----------------------0--0--------|--------0--0--------------0--0--|--|
 F-|--2-----------0--2--------2--2--0--2--|--------2--2--0--2--------2--2--|--|
 C-|--2-----------------------2--2--------|--------2--2--------------2--2--|--|
 G-|--0-----------------0-----0--0--------|--0-----0--0--------0-----0--0--|--|
     Em                       Em Em               Em Em             Em Em




     Eb                      Eb Eb                Eb Eb             Eb Eb  : (repeat)
 g-|--0-----------------------0--0--------|--------0--0--------------0--0--|--|
 D-|--1-----------------------1--1--------|--------1--1--------------1--1--|--|
 Bb|--0-----------------------0--0--------|--------0--0--------------0--0--|--|
 F-|--2-----------0--2--------2--2--0--2--|--------2--2--0--2--------2--2--|--|
 C-|--3-----------------3-----3--3--------|--3-----3--3--------3-----3--3--|--|
 G-|--------------------------------------|--------------------------------|--|
      C                       C  C                 C  C              C  C



     Cm                                      F         Fsus4 Fsus2
 g-|--0-----------------------------------|--2-----------3--2--0--2--------|--|
 D-|--1-----------------------------------|--3-----------3--3--3--3--------|--|
 Bb|--2-----------------------------------|--2-----------2--2--2--2--------|--|
 F-|--2-----------------------------------|--0-----------0--0--0--0--------|--|
 C-|--0-----------------------------------|--------------------------------|--|
 G-|--------------------------------------|--------------------------------|--|
     Am                                      D         Dsus4  Dsus2
                                                            D     D

                                             1        2  3  4  5  6
     Bb                                      ---3------------------------|
 g-|--3-----------------------------------|--------------------------|---|
 D-|--0-----------------------------------|--------------------------|---|
 Bb|--0-----------------------------------|--------------------------|---|
 F-|--0-----------------------------------|--------------------------|---|
 C-|--2-----------------------0--2--3-----|--0-h2-p0--------3--------|---|
 G-|--3-----------------------------------|-----------3--1-----------|---|
      G


                                     Fsus4   F         Fsus2   F
 g-|-----------------|--------------|--3-----2-----------0-----2-----------|--|
 D-|-----------------|--------------|--3-----3-----------3-----3-----------|--|
 Bb|-----------------|-----------0--|--2-----2-----------2-----2-----------|--|
 F-|-----------------|-----0--2-----|--0-----0-----0-----0-----0-----0-----|--|
 C-|--3--2--0-----3--|--3-----------|--------------------------------------|--|
 G-|-----------3-----|--------------|--------------------------------------|--|
                                      Dsus4  D         Dsus2   D


    Fsus4   F
 g-|--3-----2-----------------------|--|
 D-|--3-----3-----------------------|--|
 Bb|--2-----2-----0--2--0-----0-----|--|
 F-|--0-----0--------------2--------|--|
 C-|--------------------------------|--|
 G-|--------------------------------|--|
    Dsus2   D



 Cm               Eb          Gm
 Cold aeroplanes, slow boats, warm trains,
 Am               C           Em

           Gm          Gm                Bb
 g-|--------0-----------0--------------|--3--------|
 D-|--------0-----------0--------------|--0--------|
 Bb|--------0-----------0--------------|--0--------|
 F-|--0--2--2-----0--2--2--------------|--0--------|
 C-|--------2-----------2--------------|--2--------|
 G-|--------0-----------0-----0--2--3--|--3--------|
           Em          Em                 C

 Bb           Gm     F
 Remind me of Jack-a-Lynn
 G            Em     D
Suggest correction
Give kudos to tab author, rate the tab!
1 2 3 4 5
comments
print report bad tab
guest
You may want to rate the tab now too:
select rating
Wanna post a correction for this tab? Suggest correction