Oops, an error
Loading. Please wait.

Locomotive Breath Bass

version 2
version 2

Whole song

Interactive

10,462 views 24 this week
no commentswrite comment
1 2 3 4 5
x 8
add to favorites
launch autoscroll
font size
0
reset
guitar tuner
backing track
0:00
0:00
×
Best way to learn
"Locomotive Breath"
Autoscroll
slow
fast
+/-
esc
set tempo
stop
++++++++++++++++++++++++++++++++++
| Jethro Tull- Locomotive Breath |
++++++++++++++++++++++++++++++++++


"No way to slow down..."


Tuning: EADG


The bending on the string should be really soft and gentle
just to produce the "wobbly" effect


 
Intro     1:21
1.
G|-------------------------------------------------------|
D|-------------------------------------------------------|
A|-------5-7b-7b-7b-7b-7b-------5-7b-7b-7b-7b-7b-------5-|
E|-777-3------------------777-3------------------777-3---|

Verse
"In the shuffling madness..."
2.
G|---------------------------------------------------------------------------------------------|
D|---------------------------------------------------------------------------------------------|
A|-7b-7b-7b-7b-7b-------5-7b-7b-7b-7b-7b-------5-7b-7b-7b-7b-7b-------5----------------------5-|
E|----------------777-3------------------777-3------------------777-3---7b-7b-7b-7b-7b-777-7---|

"He feels the piston scraping..."
3.
G|----------------------------------------------------------------------------------------|
D|----------------------------------------------------------------------------------------|
A|-7b-7b-7b-7b-7b-------5-7b-7b-7b-7b-7b-------5----------------------------------------5-|
E|----------------777-3------------------777-7---33333333-55555555-7b-7b-7b-7b-7b-777-7---|

4.
G|-----------------------------------------------|
D|-----------------------------------------------|
A|-7b-7b-7b-7b-7b-------5-7b-7b-7b-7b-7b-------5-|
E|----------------777-3------------------777-3---|

Verse
"He sees his children jumping..."
5.
G|---------------------------------------------------------------------------------------------|
D|---------------------------------------------------------------------------------------------|
A|-7b-7b-7b-7b-7b-------5-7b-7b-7b-7b-7b-------5-7b-7b-7b-7b-7b-------5----------------------5-|
E|----------------777-3------------------777-3------------------777-3---7b-7b-7b-7b-7b-777-7---|

"He's crawling down the corridor..."
6.
G|----------------------------------------------------------------------------------------|
D|----------------------------------------------------------------------------------------|
A|-7b-7b-7b-7b-7b-------5-7b-7b-7b-7b-7b-------5----------------------------------------5-|
E|----------------777-3------------------777-7---33333333-55555555-7b-7b-7b-7b-7b-777-7---|

7.
G|-----------------------------------------------|
D|-----------------------------------------------|
A|-7b-7b-7b-7b-7b-------5-7b-7b-7b-7b-7b-------5-|
E|----------------777-3------------------777-3---|

Solo
8.
G|---------------------------------------------------------------------------------------------|
D|---------------------------------------------------------------------------------------------|
A|-7b-7b-7b-7b-7b-------5-7b-7b-7b-7b-7b-------5-7b-7b-7b-7b-7b-------5----------------------5-|
E|----------------777-3------------------777-3------------------777-3---7b-7b-7b-7b-7b-777-7---|

9.
G|----------------------------------------------------------------------------------------|
D|----------------------------------------------------------------------------------------|
A|-7b-7b-7b-7b-7b-------5-7b-7b-7b-7b-7b-------5----------------------------------------5-|
E|----------------777-3------------------777-7---33333333-55555555-7b-7b-7b-7b-7b-777-7---|

10.
G|-----------------------------------------------|
D|-----------------------------------------------|
A|-7b-7b-7b-7b-7b-------5-7b-7b-7b-7b-7b-------5-|
E|----------------777-3------------------777-3---|

Verse
"He hears the silence howling..."
11.
G|---------------------------------------------------------------------------------------------|
D|---------------------------------------------------------------------------------------------|
A|-7b-7b-7b-7b-7b-------5-7b-7b-7b-7b-7b-------5-7b-7b-7b-7b-7b-------5----------------------5-|
E|----------------777-3------------------777-3------------------777-3---7b-7b-7b-7b-7b-777-7---|

"He picks up Gideons Bible..."
12.
G|----------------------------------------------------------------------------------------|
D|----------------------------------------------------------------------------------------|
A|-7b-7b-7b-7b-7b-------5-7b-7b-7b-7b-7b-------5----------------------------------------5-|
E|----------------777-3------------------777-7---33333333-55555555-7x-------------777-7---|

Outro
"No way to slow down..."
13.
G|-----------------------------------------------|
D|-----------------------------------------------|
A|-7b-7b-7b-7b-7b-------5-7b-7b-7b-7b-7b-------5-|--Play until song fades
E|----------------777-3------------------777-3---|


Please rate thanks!


Lyrics:

In the shuffling madness 
of the locomotive breath, 
runs the all-time loser, 
headlong to his death. 
"Oh" He feels the piston scraping 
steam breaking on his brow 
old Charlie stole the handle and 
the train "it" won't stop going 
no way to slow down. "OhooOh"

He sees his children "jumping" off 
at the stations one by one. 
His woman and his best friend 
in bed and having fun. 
"Oh" He's crawling down the corridor 
on his hands and knees 
old Charlie stole the handle and 
the train "it" won't stop going 
no way to slow down. "Heaheya" 

He hears the silence howling  
catches angels as they fall. 
And the all-time winner 
has got him by the balls. 
"Oh" He picks up Gideons Bible 
open at page one 
I "THINK" God "he" stole the handle and
the train "it" won't stop going 
no way to slow down. 



+++++++++++
| Raileff |
+++++++++++
Suggest correction
comments
print report bad tab
guest
You may want to rate the tab now too:
select rating
Wanna post a correction for this tab? Suggest correction