Oops, an error
Loading. Please wait.

Mother Goose bass

version 1
version 1

Whole song

Interactive

131 views 1 this week
2 commentsread comments
1 2 3 4 5
1 last vote to show rating
add to favorites
×
Save as Personal and add changes to this tab that will be seen only by you. Learn more ›
×
You can save this tab as Personal to edit and correct it or add notes. All changes will be seen only by you. Learn more »
launch autoscroll
font size
0
reset
guitar tuner
edit
Autoscroll
slow
fast
+/-
esc
set tempo
stop
Author
Difficulty
--------------------------------------------------------------------------
                            Artist - Jethro Tull
                          ***********************
                            Song - Mother Goose    
                           *********************
                          Album - Aqualung (1971)
                         *************************
                           Tabbed By - Ayreon77
                          **********************
--------------------------------------------------------------------------
Tuning = Standard             


NO BASS TILL

02:23
G|-------------|---------|-----------------|-----------------|----------|
D|-------------|---------|-----------------|-----------------|----------|
A|-3-5-5---5-5-|-0-3-5-5-|-0-3-5-5---3-5-5-|-0-3-5-5---3-5-5-|-0-3-5~~~-|
E|-------------|---------|-----------------|-----------------|----------|

02:36
G|-----|-----|-----|--------|-----|--------|--------|
D|-----|-----|-3-3-|-5--5-5-|-3-3-|-5--5-5-|-5--3-3-|
A|-5-5-|-5-5-|-----|--------|-----|--------|--------|
E|-----|-----|-----|--------|-----|--------|--------|

02:43
G|-----|-------|---------|-------|----------|
D|-----|-------|---------|-------|----------|
A|-5-5-|-3-5-5-|-0-3-5-5-|-3-5-5-|-0-3-5~~~-|
E|-----|-------|---------|-------|----------|

02:51
G|---|---|-----|--------|-----|--------|--------|
D|---|---|-3-3-|-5--5-5-|-3-3-|-5--5-5-|-5--3-3-|
A|-5-|-5-|-----|--------|-----|--------|--------|
E|---|---|-----|--------|-----|--------|--------|

02:58
G|-----|-------|---------|-------|---------|-------|-----|-----|
D|-----|-------|---------|-------|---------|-------|-----|-----|
A|-5-5-|-3-5-5-|-0-3-5-5-|-3-5-5-|-0-3-5-5-|-3-5-5-|-5-5-|-5-5-|
E|-----|-------|---------|-------|---------|-------|-----|-----|

03:08
G|-------------|-5----7----|-------------|-5----7----|---|
D|-5-----5---5-|---5-----7-|-5-----5---5-|---5-----7-|---|
A|-----7---7---|-----------|-----7---7---|-----------|-7-|
E|-------------|-----------|-------------|-----------|---|

03:28
G|-------------|---------------|-----------------|-----------------|
D|-------------|---------------|-----------------|-----------------|
A|-3-5-5---5-5-|-0-3-5-5---5-5-|-0-3-5-5---3-5-5-|-0-3-5-5---3-5-5-|
E|-------------|---------------|-----------------|-----------------|


G|---|
D|---|
A|-5-|
E|---|



ENJOY..........

            
            
Suggest correction
Creating personal tab
Creating personal tab
You can edit any tab online and save it as your Personal.

You can edit, replace or remove any tab part or add personal notes – all changes will be seen only by you.

Personal tabs can be accessed anytime from any device, even offline.
Learn more »
Give kudos to tab author, rate the tab!
1 2 3 4 5
comments
print report bad tab
2 comments total.
0 reply
schoben 3,352 Aug 06, 2016 11:49 AM, edited at 03:49 pm

ah such a pleasure!! Thanks for this contribution!!

guest
You may want to rate the tab now too:
select rating
Wanna post a correction for this tab? Suggest correction