Oops, an error
Loading. Please wait.

My God Tab

version 2
version 2

Whole song

19,719 views 24 this week
3 commentsread comments
1 2 3 4 5
accurate
x 11
add to favorites
launch autoscroll
font size
0
reset
how to read this tab
guitar tuner
Autoscroll
slow
fast
+/-
esc
set tempo
stop
Help us to improve Ultimate-Guitar.com Take our survey!
×
Author
Difficulty
intermediate
--------------------------------------------------------------------------------
                             MY GOD - Jethro Tull
--------------------------------------------------------------------------------
Tabbed by: NineInchNails_0
E-mail: axel_hyper@hotmail.com
Tuning: e,B,G,D,A,E

Intro:
e|-----------------------------------------------------------------------------|
B|-----------------------------------------------------------------------------|
G|-----------------------------------------------------------------------------|
D|---7--------7---7---7---7---7---7-5h7----------------------------------------|
A|-0------------0---0---0---0---0----------------------------------------------|
E|-----------------------------------------------------------------------------|
Repeat several times while increasing the tempo.

e|-----------------------------------------------------------------------------|
B|--------------------------------------5-4---------------5-4------------------|
G|------------------------2---4---------5-4---------------5-4------------------|
D|------------------0-2-3---3-5-5-7-7-7-7-7-7-------7-7-7-7-7-7----------------|
A|-0-0--------0-2-3---------------0-----0-0---8-0-7-0-0-0-0-0---8-0-7----------|
E|-----------------------------------------------------------------------------|

Verse:
e|-----------------------------------------------------------------------------|
B|-------5-4---------------5-4---------------5-4---------------5-4-------------|
G|-------5-4---------------5-4---------------5-4---------------5-4-------------|
D|-7-7-7-7-7-7-------7-7-7-7-7-7-------7-7-7-7-7-7-------7-7-7-7-7-7-----------|
A|-0-----0-0---8-0-7-0-0-0-0-0---8-0-7-0-----0-0---8-7-0-0-0-0-0-0---8-0-7-----|
E|-----------------------------------------------------------------------------|
Play 2 times.

Chorus:
e|-------3-3-3-3---------3-3-3-3-----------------------------------------------|
B|-7-7-7-3-3-3-3-5-5-5-5-3-3-3-3-7-7-5-4-------------5-4-----------------------|
G|-7-7-7-4-4-4-4-5-5-5-5-4-4-4-4-7-7-5-4-------------5-4-----------------------|
D|-7-7-7-5-5-5-5-5-5-5-5-5-5-5-5-7-7-7-7-7-------7-7-7-7-7---------------------|
A|-5-5-5-5-5-5-5-3-3-3-3-5-5-5-5-5-5-0-0---8-0-7-0-0-0-0---8-0-7---------------|
E|-------3-3-3-3---------3-3-3-3-----------------------------------------------|

e|-------3-3-3-3---------3-3-3-3-7-7---7---------------------------------------|
B|-7-7-7-3-3-3-3-5-5-5-5-3-3-3-3-7-7-7-7---------------------------------------|
G|-7-7-7-4-4-4-4-5-5-5-5-4-4-4-4-7-7-7-7---------------------------------------|
D|-7-7-7-5-5-5-5-5-5-5-5-5-5-5-5-7-7-7-7---------------------------------------|
A|-5-5-5-5-5-5-5-3-3-3-3-5-5-5-5-5-5-5-5---------------------------------------|
E|-------3-3-3-3---------3-3-3-3-----------------------------------------------|

Verse:
e|-----------------------------------------------------------------------------|
B|-------5-4---------------5-4---------------5-4---------------5-4-------------|
G|-------5-4---------------5-4---------------5-4---------------5-4-------------|
D|-7-7-7-7-7-7-------7-7-7-7-7-7-------7-7-7-7-7-7-------7-7-7-7-7-7-----------|
A|-0-----0-0---8-0-7-0-0-0-0-0---8-0-7-0-----0-0---8-7-0-0-0-0-0-0---8-0-7-----|
E|-----------------------------------------------------------------------------|

e|-----------------------------------------------------------------------------|
B|-----------------------------------------------------------------------------|
G|-----------------------------------------------------------------------------|
D|-----------------------------------------------------------------------------|
A|-7-6----5-3---------7-6----5-3---------7-6----5-3---------7-6----5-3---------|
E|------------5-0-3-5------------5-0-3-5------------5-0-3-5------------5-0-3-5-|

e|-----------------------------------------------------------------------------|
B|-----------------------------------------------------------------------------|
G|-----------------------------------------------------------------------------|
D|-----------------------------------------------------------------------------|
A|-7-6----5-3---------7-6----5-3-----------------------------------------------|
E|------------5-0-3-5----------------------------------------------------------|

Chorus:
e|-------3-3-3-3---------3-3-3-3-----------------------------------------------|
B|-7-7-7-3-3-3-3-5-5-5-5-3-3-3-3-7-7-------------------------------------------|
G|-7-7-7-4-4-4-4-5-5-5-5-4-4-4-4-7-7-------------------------------------------|
D|-7-7-7-5-5-5-5-5-5-5-5-5-5-5-5-7-7-------------------------------------------|
A|-5-5-5-5-5-5-5-3-3-3-3-5-5-5-5-5-5-7-6----5-3---------7-6----5-3-------------|
E|-------3-3-3-3---------3-3-3-3----------------5-0-3-5------------------------|

e|-------3-3-3-3---------3-3-3-3-7-7---7---------------------------------------|
B|-7-7-7-3-3-3-3-5-5-5-5-3-3-3-3-7-7-7-7---------------------------------------|
G|-7-7-7-4-4-4-4-5-5-5-5-4-4-4-4-7-7-7-7---------------------------------------|
D|-7-7-7-5-5-5-5-5-5-5-5-5-5-5-5-7-7-7-7---------------------------------------|
A|-5-5-5-5-5-5-5-3-3-3-3-5-5-5-5-5-5-5-5---------------------------------------|
E|-------3-3-3-3---------3-3-3-3-----------------------------------------------|

The solo evolves around these notes: (It's very hard to tab out):
e|-------------------------------------17-17--17-15-15-------------------------|
B|-----------------------5-5-5-8-10-10------------------17-15------------------|
G|-9-7-9-7-5---5-7b8-7-5-------------------------------------16-16-14--14-12---|
D|-----------7-----------------------------------------------------------------|
A|-----------------------------------------------------------------------------|
E|-----------------------------------------------------------------------------|
I think this is pretty ok. Try to improvise the solo. If you've got any better tab for 
email me!

Flute chord formation:
e|-----------------------------------------------------------------------------|
B|-----------------------------------------------------------------------------|
G|-7----5-----7-7----7----5----7-7----7----5-----7-7----7----5-----7-7---------|
D|-5----3--5--5-5----5----3--5-5-5----5----3--5--5-5----5----3--5--5-5---------|
A|---------3-----------------3----------------3-----------------3--------------|
E|-----------------------------------------------------------------------------|

*FLUTE SOLO*

Flute chord formation again:
e|-----------------------------------------------------------------------------|
B|-----------------------------------------------------------------------------|
G|-7----5-----7-7----7----5----7-7----7----5-----7-7----7----5-----7-7---------|
D|-5----3--5--5-5----5----3--5-5-5----5----3--5--5-5----5----3--5--5-5---------|
A|---------3-----------------3----------------3-----------------3--------------|
E|-----------------------------------------------------------------------------|

Verse:
e|-----------------------------------------------------------------------------|
B|-------5-4---------------5-4---------------5-4---------------5-4-------------|
G|-------5-4---------------5-4---------------5-4---------------5-4-------------|
D|-7-7-7-7-7-7-------7-7-7-7-7-7-------7-7-7-7-7-7-------7-7-7-7-7-7-----------|
A|-0-----0-0---8-0-7-0-0-0-0-0---8-0-7-0-----0-0---8-7-0-0-0-0-0-0---8-0-7-----|
E|-----------------------------------------------------------------------------|

e|-----------------------------------------------------------------------------|
B|-------5-4---------------5-4-------------------------------------------------|
G|-------5-4---------------5-4-------------------------------------------------|
D|-7-7-7-7-7-7-------7-7-7-7-7-7-----------------------------------------------|
A|-0-----0-0---8-0-7-0-0-0-0-0---8-0-7-7-6----5-3---------7-6----5-3-----------|
E|------------------------------------------------5-0-3-5------------5-0-3-5---|

e|-----------------------------------------------------------------------------|
B|-----------------------------------------------------------------------------|
G|-----------------------------------------------------------------------------|
D|-----------------------------------------------------------------------------|
A|-7-6----5-3---------7-6----5-3---------7-6----5-3---------7-6----5-3---------|
E|------------5-0-3-5------------5-0-3-5------------5-0-3-5--------------------|

Chorus:
e|-------3-3-3-3---------3-3-3-3-----------------------------------------------|
B|-7-7-7-3-3-3-3-5-5-5-5-3-3-3-3-7-7-------------------------------------------|
G|-7-7-7-4-4-4-4-5-5-5-5-4-4-4-4-7-7-------------------------------------------|
D|-7-7-7-5-5-5-5-5-5-5-5-5-5-5-5-7-7-------------------------------------------|
A|-5-5-5-5-5-5-5-3-3-3-3-5-5-5-5-5-5-7-6----5-3---------7-6----5-3-------------|
E|-------3-3-3-3---------3-3-3-3----------------5-0-3-5------------------------|

e|-------3-3-3-3---------3-3-3-3-7-7---7---------------------------------------|
B|-7-7-7-3-3-3-3-5-5-5-5-3-3-3-3-7-7-7-7---------------------------------------|
G|-7-7-7-4-4-4-4-5-5-5-5-4-4-4-4-7-7-7-7---------------------------------------|
D|-7-7-7-5-5-5-5-5-5-5-5-5-5-5-5-7-7-7-7---------------------------------------|
A|-5-5-5-5-5-5-5-3-3-3-3-5-5-5-5-5-5-5-5---------------------------------------|
E|-------3-3-3-3---------3-3-3-3-----------------------------------------------|

Solo again:
e|-----------------------------------------------------------------------------|
B|-9-7-9-7-9-7---------------------------------10-10-10-10---------------------|
G|-------------7--9b10--------------------------7--7--7--7-9b10-7--------------|
D|---------------------7-10-10-7-5h7-7-5h7-7-----------------------------------|
A|-------------------------------------------7---------------------------------|
E|-----------------------------------------------------------------------------|

Outro:
e|-----------------------------------------------------------------------------|
B|-----------------------------------------------------------------------------|
G|-----------------------------------------------------------------------------|
D|-----------------------------------------------------------------------------|
A|-7-6----5-3---------7-6----5-3---------7-6----5-3---------7-6----5-3---------|
E|------------5-0-3-5------------5-0-3-5------------5-0-3-5--------------------|

The solos are not exactly like in the song. I only tabbed the notes that are used, but 
guitarist improvises like hell in between them. Please, email me if you can help me with 
the solo sections.

b = bend note
h = hammer-on

Thank you for choosing my tab!
================================================================================
Suggest correction
comments
print report bad tab
3 comments total.
0 reply
MINI_METAL_MAN 20 wrote on May 8 2006, 10:58 am

Great tab 5*

0 reply
NineInchNails_0 235 wrote on May 8 2006, 01:51 pm

Thanks!

0 reply
bassetrox 334 wrote on September 29 2007, 06:26 pm

I think theres another open A string near the end the main verse riff, im not sure mind, good tab.:)

guest
You may want to rate the tab now too:
select rating
Please do not post tabs as comments. Select "correction" instead!