Oops, an error
Loading. Please wait.

Roots To Branches Tab

version 2
version 2

Whole song

589 views 1 this week
no commentswrite comment
1 2 3 4 5
3 more votes to show rating
add to favorites
launch autoscroll
font size
0
reset
how to read this tab
guitar tuner
Autoscroll
slow
fast
+/-
esc
set tempo
stop
Help us to improve Ultimate-Guitar.com Take our survey!
×
Author
Difficulty
intermediate
Band: Jethro Tull       Song: Roots to branches
Hey this is my first tab so i don't know if it is all correct
but i see there was almost none tabs of this song on the site
so i decide to make this one, I hope you enjoy.
Transcripted by Patrick Richard
IF u have any doubts or just wanna talk:
mrlegales@hotmail.com

The first riff goes like this:

e|--------------------------------|
B|--------------------------------|
G|--------------------------------|
D|--------------------------------|
A|---------0----------------------|
E|--0-2-3------3-2-2--------------|

Then:
e|--------------------------------|
B|--------------------------------|
G|--------2-----------------------|
D|--2-4-5----5-4-4----------------|
A|--------------------------------|
E|--------------------------------|

This riff is with a low distortion
and it's just after the last one:
e|--------------------------------|
B|--------------------------------|
G|--------2-----------------------|
D|--2-4-5----5-4-4v---------------|
A|--------------------------------|
E|--------------------------------|

Verse:
e|-------------2------------------| Plays alternating between B and A.
B|---------------4---This ia a B--|
G|--------2-------4--played from--|
D|--2-4-5----------4---bottom-----|
A|------------------2--to top-----|
E|--------------------------------|

e|-------------0------------------|
B|--------------3----A played from|
G|--------2------3---bottom-------|
D|--2-4-5---------3--to top-------|
A|-----------------0--------------|
E|--------------------------------|

Pre-chorus:
Bad mouth on a prayer day, hope no one's listening.
Roots down in the wet clay, branches glistening.
e|--------------------------------|
B|--------------------------------|
G|--------------------------------|
D|---7-9--5-7--9--7-9--7-5--4-----|
A|---5-7--3-5--7--5-7--5-3--2-----|
E|--------------------------------|
Chorus is just F# and piano solos on it
After chorus he plays the second riff with some distortion.
e|--------------------------------|
B|--------------------------------|
G|--------2-----------------------|
D|--2-4-5----5-4-4v---------------|
A|--------------------------------|
E|--------------------------------|

The song goes around this, the solo i haven't got it yet.
I hope you all enjoy it.
Suggest correction
Give kudos to tab author, rate the tab!
1 2 3 4 5
comments
print report bad tab
guest
You may want to rate the tab now too:
select rating
Wanna post a correction for this tab? Suggest correction