Oops, an error
Loading. Please wait.

Some Day The Sun Wont Shine For You Tab

8,069 views 6 this week
no commentswrite comment
1 2 3 4 5
1 last vote to show rating
add to favorites
launch autoscroll
font size
0
reset
how to read this tab
guitar tuner
Autoscroll
slow
fast
+/-
esc
set tempo
stop
Help us to improve Ultimate-Guitar.com Take our survey!
×
Author
      -------------------------------------------------------------

      JETHRO TULL - SOME DAY THE SUN WON'T SHINE FOR YOU (Anderson) 
                    From THIS WAS album. Released October 25th 1968

      -------------------------------------------------------------

      Tabbed by:PJVillanueva




  In the morning gonna get my things together.
  Packing up I'm leaving this place.
  I don't believe you'll cry, 
  there'll be a smile upon your face.

  I didn't think how much you'd hurt me.
  That's something that I laugh about.
  Bring in the good times, baby.
  And let the bad times out.

  That old sun keeps on shining,
  But someday it won't shine for you.
  In the morning I'll be leaving.
  I'll leave your mother too.




                    Use a capo on the second fret and 
                    tune low E string down to D.




    12/8 time
 
                                     
  e|-------- -------- -------- --------|-------- -------- -------- --------|
  B|-----------------------------------|-----------------------------------|
  G|---------------4B5R4-~-------------|---------------4B5R4-~-------------|
  D|---------4B5---4B5R4-~--------2--4-|2--------4B5---4B5R4-~--------2--4-|
  A|0-----0--0-----0--------0-/4-------|0-----0--0-----0--------0-/4-------|
  D|-----------------------------------|-----------------------------------|



  e|-------- -------- -------- --------|-------- -------- -------- --------|
  B|-----------------------------------|-----------------------------------|
  G|---------------4B5R4-~-------------|-----------------\-----------------|
  D|2--------4B5---4B5R4-~--------2--4-|2-----------2----54--2--4--2-----2-|
  A|0-----0--0-----0--------0-/4-------|0-----0--4-----0--------------4----|
  D|-----------------------------------|-----------------------------------|

    00:10

  e|-------- -------- -------- --------|-------- -------- -------- --------|
  B|-----------------B--------R--------|-----------------R-----------------|
  G|------------2----45--5--5--4--2----|2-----------2----54--2--4--2-----0-|
  D|0-----0-/4-----0--0--0--0--0--0--4-|0-----0-/4-----4--0-----0-----4----|
  A|-----------------------------------|-----------------------------------|
  D|-----------------------------------|-----------------------------------|



  e|-------- -------- -------- --------|-------- -------- -------- --------|
  B|-----------------------------------|-----------------------------------|
  G|---------------4B5R4-~-------------|---------4B5-----------------------|
  D|2--------4B5---4B5R4-~--------2--4-|2--------4B5---4B5R4-~--------2--4-|
  A|0-----0--0-----0--------0-/4-------|0-----0--0-----0--------0-/4-------|
  D|-----------------------------------|-----------------------------------|
  
    00:21

  e|-------- -------- -------- --------|-------- -------- -------- --------|
  B|0-----------0-----3--0--2--0-----0-|-----------------B-----------------|
  G|------------------------------1----|2-----------2----45--5--5--5R-2----|
  D|2-----2--6-----6--2-----2----------|0-----0-/4-----0--0-----0--------4-|
  A|-----------------------------------|-----------------------------------|
  D|-----------------------------------|-----------------------------------|

                                                      (.

  e|-------- -------- -------- --------|-------- -------- -------- --------|
  B|2----------------------------------|---------------3-------------------|
  G|------------6--------5--------4----|2--------2-----1-------------------|
  D|-----------------------------------|---------3-----2-------------------|
  A|0-----4-/7-----7--6-----6--5-----5-|4--------3-----2-------------------|
  D|-----------------------------------|------0----------------------------|
                                                                   In    the 

    00:32

  e|-------- -------- -------- --------|-------- -------- -------- --------|
  B|-----------------------------------|0--------2B3---2B3R2-~--------0----|
  G|---------------4B5R4-~-------------|-----(1)---------------------------|
  D|2--------4B5---4B5R4-~--2--2-----2-|2-----2--2-----2--------2-/6-----6-|
  A|0-----0--0-----0--------0--0-----0-|-----------------------------------|
  D|-----------------------------------|-----------------------------------|
    morning     gonna get   my things together.                    Packing 



  e|-------- -------- -------- --------|-------- -------- -------- --------|
  B|-----------------------------------|-----------------------------------|
  G|2--------4B5---5--2-----2--4B5---2-|------------2-----5--2--4--2-----0-|
  D|0-----0--0-----0--0-----0--0-----0-|------0-/4-----0--0-----0-----4----|
  A|-----------------------------------|-----------------------------------|
  D|-----------------------------------|-----------------------------------|
    up       I'm      leaving  this  place.                     I  don't believe



  e|-------- -------- -------- --------|-------- -------- -------- --------|
  B|-----------------------------------|0-----------0-----3--0--2--0-------|
  G|---------------4B5R4-~-------------|------------------------------1--2-|
  D|2--------4B5---4B5R4-~--------2--4-|2-----2-/6-----2--2-----2----------|
  A|0-----0--0-----0--------0-/4-------|-----------------------------------|
  D|-----------------------------------|-----------------------------------|
             your  crying      be             a  smile upon        your  face
                            there'll      
                                                      (.

  e|-------- ---9---- ---8---- ---7----|5------- -----(0) -------- --------|
  B|-----------------------------------|---------4----(3)------------------|
  G|------2-/9-----9--8-----8--7-----7-|6--------2-----1-------------------|
  D|2----------------------------------|---------3-----2-------------------|
  A|0-----3----------------------------|---------3-----2-------------------|
  D|-----------------------------------|------0----------------------------|
                                                                I  didn't

    00:52

  e|-------- -------- -------- --------|-------- -------- -------- --------|
  B|2----------------------------------|---------2B3---2B3R2-~--------0--2-|
  G|2--------------4B5R4-~-------------|-----------------------------------|
  D|2--------------4B5R4-~--------2--4-|2-----2--2-----2--------2-/6-------|
  A|0-----0--0-----0--------0--4-------|-----------------------------------|
  D|-----------------------------------|-----------------------------------|
    think                       much you'd    me.                        That's 
                            how         hurt


  e|-------- -------- -------- --------|-------- -------- -------- --------|
  B|-----------------------------------|-----------------------------------|
  G|2-----------2-----4B5---5-R4--2----|2--------------2--------------2--4-|
  D|0-----0--4-----0--0-----0--0-----4-|0--------------0--------0-/4-------|
  A|-----------------------------------|-----------------------------------|
  D|-----------------------------------|-----------------------------------|
    something      I  laugh    about.                           Bring    the
             that                                                  in


  e|-------- -------- -------- --------|-------- -------- -------- --------|
  B|-----------------------------------|-----------------------------------|
  G|---------------4B5R4-~-------------|1----------------------------------|
  D|2--------4B5---4B5R4-~--------2--4\|2----------------------------------|
  A|0-----0--0-----0--------0--4-------|2-----------2-----5--2--4--2-----2-|
  D|-----------------------------------|2-----2-/6------2-2-----2-----6----|
    good     times,                              let   the         times out
                   baby                       and         bad 
                                                      (.

  e|-------- -------- -------- --------|-------- -------- -------- --------|
  B|---------------------------B-------|---------1-----0-------------------|
  G|---------------------5-----79-5--7-|6--------2-----1-------------------|
  D|---------------5--7-----7----------|---------3-----2-------------------|
  A|-----------------------------------|---------3-----2-------------------|
  D/7----------------------------------|------0--------------------------0-|


    01:13

  e|-------- -------- -------- --------|-------- -------- -------- --------|
  B|-----------------------------------|-----------------------------------|
  G|---------------4B5R4-~-------------|---------------4B5R4-~-------------|
  D|2--------4B5---4B5R4-~--------2--4-|2--------4B5---4B5R4-~--------2--4-|
  A|0-----0--0-----0--------0-/4-------|0-----0--0-----0--------0-/4-------|
  D|-----------------------------------|-----------------------------------|



  e|-------- -------- -------- --------|-------- -------- -------- --------|
  B|-----------------------------------|-----------------------------------|
  G|-----------------------------------|---------------4B5R4-~-------------|
  D|2-----------2-----5--2--4--2-----2-|2--------4B5---4B5R4-~--------2--4-|
  A|0-----0-/4-----0--0--------0-34--0-|0-----0--0-----0--------0-/4-------|
  D|-----------------------------B-----|-----------------------------------|



  e|-------- -------- -------- --------|-------- -------- -------- --------|
  B|------------------------3B4R3-~----|-----------------------------------|
  G|2-----------2-----2B3---2B3R2-~----|2-----------2-----5--2--4--2-----0-|
  D|0-----0-/4-----0--0----------------|0-----0-/4-----0--0-----0-----4----|
  A|-----------------------------------|-----------------------------------|
  D|-----------------------------------|-----------------------------------|



  e|-------- -------- -------- --------|-------- -------- -------- --------|
  B|-----------------------------------|-----------------------------------|
  G|---------------4B5R4-~-------------|---------------4B5R4-~-------------|
  D|2--------4B5---4B5R4-~--------2--4-|2--------4B5---4B5R4-~--------2--4-|
  A|0-----0--0-----0--------0-/4-------|0-----0--0-----0--------0-/4-------|
  D|-----------------------------------|-----------------------------------|



  e|-------- -------- -------- --------|-------- -------- -------- --------|
  B|------------0-----3--0--2--0-----0-|-----------------------------------|
  G|------------------------------1----|------------2-----5--2--4--2-----0-|
  D|2-----2-/6-----2--2-----2----------|0-----0-/4-----0--0-----0-----4----|
  A|-----------------------------------|0----------------------------------|
  D|-----------------------------------|-----------------------------------|

                                                      (.

  e|-------- ------5- -------- --------|-------- -------- -------- --------|
  B|------------5-----8--7--5----------|---------4-----3-----------------1-|
  G|------5--6-----------------8-P7--5-|6--------2-----1-----------0--2----|
  D|2----------------------------------|---------3-----2--------2----------|
  A|0----------------------------------|---------3-----2-------------------|
  D|-----------------------------------|-----------------------------------|


    01:45

  e|-------- -------- -------- --------|-------- -------- -------- --------|
  B|-----------------------------------|-----------------------------------|
  G|---------------4B5R4-~-------------|-----------------------------------|
  D|2--------4B5---4B5R4-~--------2--4-|2--------4B5---4B5R4---------------|
  A|0-----0--0-----0--------0-/4-------|0-----0--0-----0--------0--3-----4-|
  D|-----------------------------------|-----------------------------------|



  e|-------- -------- -------- --------|-------- -------- -------- --------|
  B|-----------------------------------|-----------------------------------|
  G|---------------4B5R4-~-------------|---------------4B5R4-~-------------|
  D|2--------4B5---4B5R4-~-------------|2--------4B5---4B5R4-~--------2--4-|
  A|0-----0--0-----0--------0--34-0-34-|0-----0--0-----0--------0-/4-------|
  D|---------------------------B----B--|-----------------------------------|



  e|-------- -------- -------- --------|-------- -------- -------- --------|
  B|-----------------B---------5-------|-----------------B-----------------|
  G|2-----------2----45--5--5--5--2----|------------2----45--5--5-R4--2----|
  D|0-----0-/4-----0--0-----0--------4-|0-----0-/4-----0--0-----0--0--0----|
  A|-----------------------------------|---------------------------------3-|
  D|-----------------------------------|-----------------------------------|



  e|-------- -------- -------- --------|-------- -------- -------- --------|
  B|-----------------------------------|-----------------------------------|
  G|---------------4B5R4-~-------------|---------------4B5R4-~-------------|
  D|2--------4B5---4B5R4-~--------2--4-|2--------4B5---4B5R4-~--------2--4-|
  A|0-----0--0-----0--------0-/4-------|0-----0--0-----0--------0-/4-------|
  D|-----------------------------------|-----------------------------------|



  e|-------- -------- -------- --------|-------- -------- -------- --------|
  B|0-----------0-----3--0--2--0-----0-|-----------------------------------|
  G|------------------------------1----|2-----------2-----5--2--4--2-----0-|
  D|2-----2-/6-----2--2-----2----------|0-----0-/4-----0--0-----0-----4----|
  A|-----------------------------------|-----------------------------------|
  D|-----------------------------------|-----------------------------------|

                                                      (.

  e|-------- -------- -------- --------|-------- 0------- -------- --------|
  B|-----------------------------------|---------4-----3-------------------|
  G|------------6--------5--------4----|2--------5-----4-------------------|
  D|2----------------------------------|---------3-----2-------------------|
  A|0-----4-/7-----7--6-----6--5-----5-|4----------------------------------|
  D|-----------------------------------|-----------------------------------|
                                                                         That

    02:17

  e|-------- -------- -------- --------|-------- -------- -------- --------|
  B|-----------------------------------|---------2B3---2B3R2-~--------0--2-|
  G|---------------4B5R4-~-------------|-----------------------------------|
  D|2--------4B5---4B5R4-~--------2--4-|2-----2--2-----2--------2-/6-------|
  A|0-----0--0-----0--------0--4-------|-----------------------------------|
  D|-----------------------------------|-----------------------------------|
    old      sun               keeps on shining,                         but



  e|-------- -------- -------- --------|-------- -------- -------- --------|
  B|-----------------------------------|--------------------------B--------|
  G|2--------4B5---4B5R4-~--------2--4-|2--------------------2----45--2--4-|
  D|0-----0--0-----0--------0--0-------|0--------------0-/4-----0--0-------|
  A|-----------------------------------|-----------------------------------|
  D|-----------------------------------|-----------------------------------|
    some     it won't          for   you                           In    the 
          day      shine


  e|-------- -------- -------- --------|-------- 2-----2- -------- --------|
  B|-----------------------------------|---------3B4---3B4R3-~-------------|
  G|-----------------------------------|4----------------------------------|
  D|2--------4B5---4B5R4-~--------2--4-|2-----2--2-----2-----------------2-|
  A|0-----0--0-----0--------0-/4-------|------------------------2-/4-------|
  D|-----------------------------------|-----------------------------------|
    morning  I'll  leaving.                   I'll     your              too
                be                               leave    mother

                                                        (.

  e|-------- -------- -------- --------|-------- -------- -------- --------|
  B|2-----------------------10---------|---------5/6---6\5-~---------------|
  G|2-----------5-----7--9----97--5--7-|6-\--------------------------------|
  D|2-----5--7-----7----B-----R--------|---------5/6---6\5-~---------------|
  A|0----------------------------------|------3----------------------------|
  D|-----------------------------------|-----------------------------------|




  e|-------- -------- -------- --------|-------- -------- -------- --------|
  B|-----------------------------------|-----------------------------------|
  G|-----------------------------------|-----------------------------------|
  D|-----------------------------------|-----------------------------------|
  A|0----------------------------------|-----------------------------------|
  D|-----------------------------------|-----------------------------------|








        B  Bend
        R  Release
        /  Slide up
        \  Slide down
        H  Hammer-on
        P  Pull-off
        ~  Vibrato
        +  Harmonic
        x  Mute note
        .  Play note like a dot in standard notation
        ^  Ties two notes together
        (. Pause


Suggest correction
Give kudos to tab author, rate the tab!
1 2 3 4 5
comments
print report bad tab
guest
You may want to rate the tab now too:
select rating
Wanna post a correction for this tab? Suggest correction