Oops, an error
Loading. Please wait.

Somethings On The Move bass

version 1
version 1

Whole song

Interactive

101 views 3 this week
no commentswrite comment
1 2 3 4 5
2 more votes to show rating
add to favorites
×
Save as Personal and add changes to this tab that will be seen only by you. Learn more ›
×
You can save this tab as Personal to edit and correct it or add notes. All changes will be seen only by you. Learn more »
launch autoscroll
font size
0
reset
guitar tuner
edit
Autoscroll
slow
fast
+/-
esc
set tempo
stop
Author

-------------------------------------------------------------------------------
                             SOMETHING'S ON THE MOVE - Jethro Tull
-------------------------------------------------------------------------------


Tabbed by: Isaias Garcia (TexasFury) 

Tuning: Standard

     
     Driving rock - 123bpm

     Intro - m.03                                                    

     E.  S H         Q       E   S  S  Q     E  E  S E.   
G||-----------------------|------------------------------|
D||-----------------------|------------------------------|
A||-----------------------|-----14-14-14\-------7--7-5---|
E||--7---7-7\-------------|------------------7-----------|


  E.  S E  E  Q.     S S    E.  S E  E  E  E  S E.     E.  S E  E  Q.     S S  
-------------------------|--------------------------|-------------------------|
-------------------------|-----------7--------------|-------------------------|
-----------5--L----------|--------------7--7--7-5---|-----------5--L----------|
--7---7-7------------0-5-|--7---7-7-----------------|--7---7-7------------0-5-|


                              Verse 1a                                                 
  E.  S E  E  E  E  S E.      E.  S E  E  Q.     S S    E.  S E  E  E  E  S E.   
--------------------------||-------------------------|--------------------------|
-----------7--------------||-------------------------|-----------5--------------|
-----------------7--7-5---||-----------3--L----------|-----------------5--5-3---|
--7---7-7-----0-----------||--5---5-5------------0-3-|--5---5-5-----3-----------|


  E.  S E  E  Q.     S S    E  E  E  E  E  E  E  S S    E.  S E  E  Q.     S S  
-------------------------|---------------------------|-------------------------|
-------------------------|---------------------------|-------------------------|
-----------3--L------0-2-|--3--3---------------------|-----------3--L----------|
--5---5-5----------------|-----------5--3--3-----0-3-|--5---5-5------------0-3-|


  E.  S E  E  E  E  S E.     E.  S E  E  E  E  S  S  E   
--------------------------|-----------------------------|
-----------5--------------|-----------------------------|
-----------------5--5-3---|-----------8--L--8--8-10-10--|
--5---5-5-----3-----------|--5---5-5--------------------|


  E.   S E   E   E   E   Q       E  S  S E  S S    E.  S E  E  Q    E  S S  
------------------------------|-----------------|--------------------------|
------------------------------|-----------------|--------------------------|
------------------------------|--8--8-10--------|-----------3--L----3------|
--8---10----12---L--12--12----|-------------0-3-|--5---5-5-------------0-3-|


                              Verse 1b                      
  E.  S E  E  E  E  S E.      E.  S Q    E  E  E  S S  
--------------------------||--------------------------|
-----------5--------------||--------------------------|
-----------------5--5-3---||----------------3--3------|
--5---5-5-----3-----------||--5---5-5-------------0-3-|


  E.  S E  E  E  E  S E.     E.  S E  E  Q    E  S S  
--------------------------|--------------------------|
-----------5--------------|--------------------------|
-----------------5--5-3---|-----------3--L----3--0-2-|
--5---5-5-----3-----------|--5---5-5-----------------|


  E  E  E  E  E  E  E  S S    E.  S E  E  Q    E  S S  
---------------------------|--------------------------|
---------------------------|--------------------------|
--3--3---------------------|-----------3--L----3------|
-----------5--3--3-----0-3-|--5---5-5-------------0-3-|


  E.  S E  E  E  E  S E.     E.  S E  E  E  S S S  S  E   
--------------------------|------------------------------|
-----------5--------------|------------------------------|
-----------------5--5-3---|-----------8--L--8-8-8-10-10--|
--5---5-5-----3-----------|--5---5-5---------------------|


  E  S  S S  S  E   E   E   Q       E  S  S  E   S S  
---------------------------------|-------------------|
---------------------------------|-------------------|
---------------------------------|--8--8-10--L\------|
--8--8-10-L-10-12---L--12--12----|---------------0-3-|


  Q    E  S S Q    E  S S    E.  S E  E  E  E  S E.   
--------------------------|--------------------------||
--------------------------|-----------5--------------||
----------7-3-L----3------|-----------------5--5-3---||
--5----5--------------0-3-|--5---5-5-----3-----------||


  Chorus 1                                                    
  E  E  E  E   E  E  E  E      E  E  E  E  E  E  S E.   
----------------------------|--------------------------|
--------5------------7------|--------------------------|
----------------------------|-----------5--L-----------|
--3--3-----3S--5--5-----5S--|--7--7--7--------7--7-5---|


  E  E  E  E   E  E  E  E      E  E  E  E  E  E  S E.   
----------------------------|--------------------------|
--------5------------7------|--------9-----------------|
----------------------------|--------------9-----------|
--3--3-----3S--5--5-----5S--|--7--7-----7-----7--7-5---|


   E   E   E   E   E   E   E   E      E   E   E   E   E   E   E   E   
----------12--------------14------|----------------------------------|
----------------------------------|----------12----------------------|
--10--10------10--12--12------12--|--------------------------14------|
----------------------------------|--10--10------10--12--12------12--|


   E   E   E   E   E   E   E   E      W                 
----------------------------------|--------------------|
----------------------11--12--14--|--16----------------|
------14--16--17--12--------------|--------------------|
--15------------------------------|--------------------|


   Q    E.   S  E  E  S E.     E.  S E  E  Q    E  S S  
----------------------------|--------------------------|
---L----L\------------------|--------------------------|
-------------------7--7-5---|-----------5--L----5--7---|
-------------5s-7-----------|--7---7-7---------------5-|


                               Verse 2                       
  E.  S E  E  E  E  S E.       E.  S E  E  Q    E  S S  
---------------------------||--------------------------|
-----------7---------------||--------------------------|
--------------7--7--7-5\---||-----------3--L----3------|
--7---7-7------------------||--5---5-5-------------0-3-|


  E.  S E  E  E  E  S E.     E.  S E  E  Q    E  S S  
--------------------------|--------------------------|
-----------5--------------|--------------------------|
-----------------5--5-3---|-----------3--L----3--0-2-|
--5---5-5-----3-----------|--5---5-5-----------------|


  E  E  E  E  E  E  E  S S    Q    E  E  Q    E  S S  
---------------------------|-------------------------|
---------------------------|-------------------------|
--3--3---------------------|----------3--L----3------|
-----------5--3--3-----0-3-|--5----5-------------0-3-|


  E.  S E  E  E  E  S E.     E.  S E  E  E  S S S  S  E   
--------------------------|------------------------------|
-----------5--------------|------------------------------|
-----------------5--5-3---|-----------8--L--8-8-8-10-10--|
--5---5-5-----3-----------|--5---5-5---------------------|


  E  S  S E   E   E   E   Q       E  S  S  E   S S    Q    E  S S Q    E  S S  
-------------------------------|-------------------|--------------------------|
-------------------------------|-------------------|--------------------------|
-------------------------------|--8--8-10--L\------|----------7-3-L----3------|
--8--8-10----12---L--12--12----|---------------0-3-|--5----5--------------0-3-|


                              Chorus 2                         
  E.  S E  E  E  E  S E.      E  E  E  E   E  E  E  E    
--------------------------||----------------------------|
-----------5--------------||--------5------------7------|
-----------------5--5-3---||----------------------------|
--5---5-5-----3-----------||--3--3-----3S--5--5-----5S--|


  E  E  E  E  E  E  S E.     E  E  E  E   E  E  E  E    
--------------------------|----------------------------|
--------------------------|--------5------------7------|
-----------5--L-----------|----------------------------|
--7--7--7--------7--7-5---|--3--3-----3S--5--5-----5S--|


  E  E  E  E  E  E  S E.      E   E   E   E   E   E   E   E   
--------------------------|----------12--------------14------|
--------9-----------------|----------------------------------|
--------------9-----------|--10--10------10--12--12------12--|
--7--7-----7-----7--7-5---|----------------------------------|


   E   E   E   E   E   E   E   E      E   E   E   S  S  E   E   S  S  S  S  
----------------------------------|----------------------------------------|
----------12----------------------|----------------------------------12-14-|
--------------------------14------|--------------12-14-12--12--12-14-------|
--10--10------10--12--12------12--|--15--15--15----------------------------|


   W                    E   Q.        E  E  S E.     E.  S E  S S Q    E  S S  
--------------------|-----------------------------|---------------------------|
--16----------------|---L--16\--------------------|---------------------------|
--------------------|--------------------7--7-5---|-----------7-5-L----5------|
--------------------|---------------5g7-----------|--7---7-7--------------0-5-|


                               Flute Solo                                                
  E.  S E  E  E  E  S E.       Q    E  E  Q.     S S    E.  S E  E  E  E  S E.   
---------------------------||------------------------|-----------7--------------|
-----------7---------------||----------5--L----------|--------------7--7--7-5---|
--------------7--7--7-5\---||--7----7------------0-5-|--7---7-7-----------------|
--7---7-7------------------||------------------------|--------------------------|


  Q    E  S S Q.     S S    E.  S E  E  E  E  S E.     Q    E  S S Q    E  S S  
-------------------------|-----------7--------------|--------------------------|
----------9-5-L----------|--------------7--7--7-5---|----------9-5-L----5------|
--7----7-------------0-5-|--7---7-7-----------------|--7----7--------------0-5-|
-------------------------|--------------------------|--------------------------|


  E.  S E  E  E  E  S E.     Q    E  S S Q    E  S S  
-----------7--------------|--------------------------|
--------------7--7--7-5---|----------9-5-L----5------|
--7---7-7-----------------|--7----7--------------0-5-|
--------------------------|--------------------------|


  E.  S E  E  E  E  S E.     W                   H        Q    E  E    
-----------7--------------|-------------------|-----------------------|
--------------7--7--7-5---|-------------------|-----------------------|
--7---7-7-----------------|-------------------|-----------------------|
--------------------------|-------------------|-------------------2/--|


  Q    H         Q       E   S  S  Q     E  E  S E.     Q    E  E  Q    E  S S  
----------------------|------------------------------|-------------------------|
----------------------|------------------------------|-------------------------|
----------------------|-----14-14-14\-------7--7-5---|----------5--L----5------|
--7----7\-------------|------------------7-----------|--7------------------0-5-|


  Q    E  E  E  E  S E.     E.  S E  S S Q    E  S S  
-------------------------|---------------------------|
----------7--------------|---------------------------|
-------------7--7--7-5---|-----------9-5-L----5------|
--7----------------------|--7---7-7--------------0-5-|


                              Verse 3                       
  E.  S E  E  E  E  S E.      E.  S E  E  Q    E  S S  
--------------------------||--------------------------|
-----------7--------------||--------------------------|
--------------7--7--7-5---||-----------3--L----3------|
--7---7-7-----------------||--5---5-5-------------0-3-|


  E.  S E  E  E  E  S E.     E.  S E  E  Q    E  S S  
--------------------------|--------------------------|
-----------5--------------|--------------------------|
-----------------5--5-3---|-----------3--L----3--0-2-|
--5---5-5-----3-----------|--5---5-5-----------------|


  E  E  E  E  E  E  E  S S    E.  S E  E  Q    E  S S  
---------------------------|--------------------------|
---------------------------|--------------------------|
--3--3---------------------|-----------3--L----3------|
-----------5--3--3-----0-3-|--5---5-5-------------0-3-|


  E.  S E  E  E  E  S E.     E.  S E  E  E  S S S  E.   
--------------------------|----------------------------|
-----------5--------------|----------------------------|
-----------------5--5-3---|-----------8--8--8-8-8-10---|
--5---5-5-----3-----------|--5---5-5-------------------|


  E  S  S S  S  E   E   E   Q       S S S  S  E   S S  
---------------------------------|--------------------|
---------------------------------|--------------------|
---------------------------------|--8-8-8-10--L\------|
--8--8-10-L-10-12---L--12--12----|----------------0-3-|


  Q    E  S S Q    E  S S    E.  S E  E  E  E  S E.   
--------------------------|--------------------------||
--------------------------|-----------5--------------||
----------7-3-L----3------|-----------------5--5-3---||
--5----5--------------0-3-|--5---5-5-----3-----------||


  Chorus 3                                                    
  E  E  E  E   E  E  E  E      E  E  E  E  E  E  S E.   
----------------------------|--------------------------|
--------5------------7------|--------------------------|
----------------------------|-----------5--L-----------|
--3--3-----3S--5--5-----5S--|--7--7--7--------7--7-5---|


  E  E  E  E   E  E  E  E      E  E  E  E  E  E  S E.   
----------------------------|--------------------------|
--------5------------7------|--------9-----------------|
----------------------------|--------------9-----------|
--3--3-----3S--5--5-----5S--|--7--7-----7-----7--7-5---|


   E   E   E   E   E   E   E   E      E   E   E   E   E   E   E   E   
----------12--------------14------|----------------------------------|
----------------------------------|----------12----------------------|
--10--10------10--12--12------12--|--------------------------14------|
----------------------------------|--10--10------10--12--12------12--|


   E   E  E   S  S  E   E  S S S S     W                 
-------------------------------7-9-|--11----------------|
---------------------------7-9-----|---0----------------|
-------------12-14-12--12----------|--------------------|
--15--15---------------------------|--------------------|


   Q    Q     E    E  S E.      E.  S E  E  Q    E  S S  
---L----L\-------------------|--------------------------|
---L----L--------------------|--------------------------|
--------------5--5g7--7------|-----------5--L----5------|
------------------------7\---|--7---7-7-------------0-5-|


                              Verse 4                       
  Q    E  E  E  E  S E.       E.  S E  E  Q    E  S S  
--------------------------||--------------------------|
----------7---------------||--------------------------|
-------------7--7--7-5\---||-----------3--L----3------|
--7----7------------------||--5---5-5-------------0-3-|


  E.  S E  E  E  E  S E.     Q    E  E  Q    E  S S  
--------------------------|-------------------------|
-----------5--------------|-------------------------|
-----------------5--5-3---|----------3--L----3--0-2-|
--5---5-5-----3-----------|--5----5-----------------|


  E  E  E  E  E  E  E  S S    Q    E  E  Q    E  S S  
---------------------------|-------------------------|
---------------------------|-------------------------|
--3--3---------------------|----------3--L----3------|
-----------5--3--3-----0-3-|--5----5-------------0-3-|


  E.  S E  E  E  E  S E.     E.  S E  E  E  S S S  E.   
--------------------------|----------------------------|
-----------5--------------|----------------------------|
-----------------5--5-3---|-----------8--8--8-8-8-10---|
--5---5-5-----3-----------|--5---5-5-------------------|


  E  S  S S  S  E   E   E   Q       S S S  S  E   S S  
---------------------------------|--------------------|
---------------------------------|--------------------|
---------------------------------|--8-8-8-10--L\------|
--8--8-10-L-10-12---L--12--12----|----------------0-3-|


  Q    E  S S Q    E  S S    E.  S E  E  E  E  S E.   
--------------------------|--------------------------||
--------------------------|-----------5--------------||
----------7-3-L----3------|-----------------5--5-3---||
--5----5--------------0-3-|--5---5-5-----3-----------||


  Chorus 4                                                     
  E  E  E  E   E  E  E  E      E  E  E  S S E  E  S E.   
----------------------------|---------------------------|
--------5------------7------|---------------------------|
----------------------------|-----------9-5-L-----------|
--3--3-----3S--5--5-----5S--|--7--7--7---------7--7-5---|


                                                      
  E  E  E  E   E  E  E  E      E   E  E  E  E  E  S E.   
----------------------------|---------------------------|
--------5------------7------|---------9-----------------|
----------------------------|---------------9-----------|
--3--3-----3S--5--5-----5S--|--7---7-----7-----7--7-5---|


                                                                   
   E   E   E   E   E   E   E   E      E   E   E   E   E   E   E   E   
----------12--------------14------|----------------------------------|
----------------------------------|----------12----------------------|
--10--10------10--12--12------12--|--------------------------14------|
----------------------------------|--10--10------10--12--12------12--|


   E   E   E   S  S  E   E   S  S  S  S     W                 
----------------------------------------|--12----------------|
----------------------------------12-14-|--------------------|
--------------12-14-12--12--12-14-------|--------------------|
--15--15--15----------------------------|--------------------|


   W                   W                   Q     Q      
--------------------|-------------------|--------------||
--------------------|--0----------------|--L-----------||
--14----------------|-------------------|--------------||
--------------------|-------------------|-------14\----||


  Out-solo                                                    
  E.  S E  S S Q    E  S S    E.  S E  E  E  E  S E.   
---------------------------|--------------------------|
---------------------------|-----------7--------------|
-----------9-5-L----5------|--------------7--7--7-5---|
--7---7-7--------------0-5-|--7---7-7-----------------|


  E.  S E  E  E  S S E  S S    E.  S E  E  E  E  S E.   
----------------------------|--------------------------|
----------------------------|-----------7--------------|
-----------9--5--5-5-5------|--------------7--7--7-5---|
--7---7-7---------------0-5-|--7---7-7-----------------|


  E  E  E  S S Q    E  S S    E.  S E  E  E  E  S E.   
---------------------------|--------------------------|
---------------------------|-----------7--------------|
-----------9-5-L----5------|--------------7--7--7-5---|
--7--7-----------------0-5-|--7---7-7-----------------|


  E  E  E  S S Q    E  S S    E  E  E  E  E  E  S S E   
---------------------------|---------------------------|
---------------------------|-----------7---------------|
-----------9-5-L----5------|--------------7--7--7-5-5--|
--7--7--7--------------0-5-|--7--7---------------------|


  E.  S E  S S Q    E  S S    E  E  E  E  E  E  S E.   
---------------------------|--------------------------|
---------------------------|-----------7--------------|
-----------9-5-L----5------|--------------7--7--7-5---|
--7---7-7--------------0-5-|--7--7--7-----------------|


  E.  S E  S S Q    E  S S    E  E  E  E  E  E  S E.   
---------------------------|--------------------------|
---------------------------|-----------7--------------|
-----------9-5-L----5------|--------------7--7--7-5---|
--7---7-7--------------0-5-|--7--7--7-----------------|


  E.  S E  S S Q    E  S S    E  E  E  E  E  E  S E.   
---------------------------|--------------------------|
---------------------------|-----------7--------------|
-----------9-5-L----5------|--------------7--7--7-5---|
--7---7-7--------------0-5-|--7--7--------------------|


  E  E  E  S S E  S S E  S S    E  E  E  E  E  E  S E.   
-----------------------------|--------------------------|
-----------------------------|-----------7--------------|
-----------9-5-L--5-5-5------|--------------7--7--7-5---|
--7--7--7----------------0-5-|--7--7--------------------|


  E  E  E  S S E  S S E  S S    E  E  E  E  E  E  S E.    
-----------------------------|--------------------------||
-----------------------------|-----------7--------------||
-----------9-5-L--5-5-5------|--------------7--7--7-5---||
--7--7-------------------0-5-|--7--7--7-----------------||


Duration Legend
---------------
W - whole
H - half
Q - quarter
E - 8th
S - 16th
T - 32nd
X - 64th
. - note dotted
|-n-|  - n-tuplets

Tablature Legend
----------------
L - tied note
g - grace note
h - hammer on
p - pull off
/ -  slide into from below or out of upwards
\ -  slide into from above or out of downwards

Check my other tabs for Guitar Pro, Powertab, chords, guitar/bass text at
http://profile.ultimate-guitar.com/TexasFury/contributions/

Suggest correction
Creating personal tab
Creating personal tab
You can edit any tab online and save it as your Personal.

You can edit, replace or remove any tab part or add personal notes – all changes will be seen only by you.

Personal tabs can be accessed anytime from any device, even offline.
Learn more »
Give kudos to tab author, rate the tab!
1 2 3 4 5
comments
print report bad tab
guest
You may want to rate the tab now too:
select rating
Wanna post a correction for this tab? Suggest correction