Oops, an error
Loading. Please wait.

Songs From The Wood Bass Tab

version 1
version 1

Whole song

Interactive

1,311 views 3 this week
1 commentread comment
1 2 3 4 5
please rate
add to favorites
launch autoscroll
font size
0
reset
guitar tuner
Tab Pro tools
  • play this tab
  • loop segment
  • change instrument
  • show fretboard
  • metronome
×
Best way to learn
"Songs From The Wood"
Autoscroll
slow
fast
+/-
esc
set tempo
stop
Contributor
Difficulty
novice
i know some parts are wrong so help me out
tuneing for jethro tull's - songs from the wood is G,D,A,E


                          :55
|-R-|----------------------------------------------------|
|-E-|----5------------------5----------------------------|
|-S-|--------5------------------5------------------------|
|-T-|------------3--3-3------------3-3-3-----------------|

|--------------------------------------------------------------|
|--------------------------------------------------------------|
|--------------------5-----------------------------------------|
|----5------3--------------1---1------0--000--000--000-0-------|

|-R-|---------------------------------------------------------------|
|-E-|-----0-----2--4--3---------------------------------------------|
|-S-|----------------------------3------2---2-2---------------------|
|-T-|-----------------------3------------------------5----3--3--3-1-|
                           play 3X's
|-R-|----------------------------------------------------------------------|
|-E-|---3------3-----------------------------------------------------------|
|-S-|----------------3----3-----3--3----------------------3------------5---|
|-T-|------------------------------------3------0---------------3----------|
   1:30
|-----------------------------------------------------------------------|
|-5-------------------5-------5/7\5-------------------------------------|
|-----5-------------------5-------------------5-------------------------|
|---------3--3---3--------------------5----3-----1--1---0-000-000-000-0-|

                                                        play 2X's in the ||
|------------------------------------------5--5----3---2-0---|---------|
|-------------------3--3-------------------------------------|--3--3---|
|-----------0--2--3-------3-3--------------------------------|---------|
|-0--2--3----------------------------------------------------|---------|

G---------------------------------------------------------|
D------------------2-2-2----------------------------------|
A-----------------------------0---3--5---5----------------|
E----0--0-2-3-0------------------------------3----5-------|

|------------------------------------------------------------------------|
|------------------------------------------------------------------------|
|-----------------------------------0----3---5-----7----7h9-p7-----------|
|----0-0---2--3h0---5----3------------------------------------------5h7--|
                                                                                         play 2X's
|-------------------------------------------------------------------------|
|-------------------------------------------------------------------------|
|---------------------------0----3----5----9--9h11------------------------|
|0--0--2h3-0--------5---3-----------------------------5h7-------5----7----|
    2:10
   play 2X's                        play 4X's
G-----------------|-R-|----2-----------------------2-----------------|
D-----------------|-E-|---------5--4--2--4--5----------5-4-5-4-2-4-5-|
A-----------------|-S-|----------------------------------------------|
E---0-0-2--3-0----|-T-|----------------------------------------------|

|-------------------------------------------------------------------------|
|-------------------------------------------------------------------------|
|-----3-3---3---3-3---3----0---1-1-----3-3---3---3-3----3----0---1-1------|
|-----------------------------------3-----------------------------------3-|
 2:43                                                                                 X2
|------------------------------------------------------------------------|
|------------------------------------------------------------------------|
|--3---------3-------3---------3------6--5--3-------5---3----------------|
|-------6-------------------6--------------------6---------------6---3---|
                                                                                   play 8X's
|-------------------------------------------------------------------------|
|-------------------------------------------------------------------------|
|--5---------5------5---------5------8--7---5---------7---5---------------|
|--------8----------------8----------------------8-----------------8----5-|
   3:35
|-------------------------------------------------------------------------|
|----------------------------------------------------0--------------------|
|------5-5---5-7-8-5----7-7--7-9-10-9-----3--1--1-1-----1-1-3--5-------3~-|
|---------------------------------------------------------------------3---|
          4:11
|-R-|-----------------------------------------------------------------------|
|-E-|----5------------------5-----------------------------------------------|
|-S-|-------5------------------5--------------------5-----------------------|
|-T-|-----------3--3--3-----------3--3--3---5----3----1--1--0-000-000-000-0-|
                          play 2X's
|-------------------------------------------------------------------------|
|-------------------------------------------------------------------------|
|--------------------------------0-3-5------7--7h9------------------------|
|---0-2-3-0--------5----3---------------------------------5h7-------------|

                                                                               X2
|--------------------------------------------------------------------------|
|--------------------------------------------------------------------------|
|-----------------------------------0-3-5-------9-9h11---------------------|
|---0-0-2-3-0---------5----3--------------------------------5-h-7---5-h-7--|
  4:40
|--------------------------------------------------------------------------|
|--------------------------------------------------------------------------|
|------5------3---2-3-4---------0--3---5---------0--0-3--------------------|
|--------------------------3-----------------3-----------------------------|
comments
We did not receive enough feedback on this tab! Please rate:
print report bad tab
1 2 3 4 5
1 comment total.
0 reply
tullbassist wrote on March 12 2013, 03:33 pm, edited on February 21 2015, 10:47 am

i'm not sure how to post tabs on here, however, i can play this song note perfect and this tab isn't that accurate. some parts are close, others not so and large sections are missing entirely. im a huge tull fan and i can play songs from the wood, hunting girl, velvet green and heavy horses very well.if you want the correct tab for songs from the wood, email me helenanderson919@gmail.com
most of the tull pieces that i play i play from memory without bothering with tabs, but i did write a few down. SFTW, Heavy Horses, Cup of wonder, fires at midnight, too old to rock no roll, elegy, and hunting girl (if i can find it). they are all bass tabs though, i dont play 6 string :-)

I want to post or [tab]
guest
You may want to rate the tab now too:
select rating
Please do not post tabs as comments. Select "correction" instead!