Oops, an error
Loading. Please wait.

Teacher Bass Tab

version 1
version 1

Whole song

Interactive

6,400 views 3 this week
2 commentsread comments
1 2 3 4 5
accurate
x 5
add to favorites
launch autoscroll
font size
0
reset
guitar tuner
Autoscroll
slow
fast
+/-
esc
set tempo
stop
Help us to improve Ultimate-Guitar.com Take our survey!
×
Difficulty
novice
              Main Riff  X 12 (varies)
G |----------9-----------------||
D |-7-7----7-----5-5----4------.||
A |------7------------5---5-5--.||
E |-----------------------------||

Chorus   X 3 !!(on the third time leave out the
last two notes and go to the Interlude)!!
G ----------------------||
D -----x-x-x-x-3-3-----.||
A -5-5-------------3-3-.||
E ----------------------||

Interlude (again, leave the last 5 notes off and go to the main riff)
G -------7h9------------------||
D -7h9-9-------------7h9 9-9-.||
A ------------7h9-9----------.||
E ----------------------------||

***An a lot more fun way to play the Interlude is as follows:
       
G ----------15/17---------------------||
D -15/17-17-13/15---------------------||
A -13/15-15----------------13h15-1515-||
E ----------------13h15-15------------||

It's just the Interlude with the fifths that the flute plays. Play it the third time through 
the interlude.
Suggest correction
comments
print report bad tab
2 comments total.
+1 reply
Led Zep fan 60 wrote on April 15 2013, 04:21 am

I dono, But When i'm playing the part at the start, where you have a 9, I put 7 on A string sliding down like this ....

---------------------
7-7---7--------------
----7---7/------------
--------------------

+1 reply
Led Zep fan 60 wrote on April 15 2013, 04:24 am

hang on... that chorus and interclude don't look right..... sorry.

guest
You may want to rate the tab now too:
select rating
Wanna post a correction for this tab? Suggest correction