Oops, an error
Loading. Please wait.

Heading For Nowhere Bass Tab

245 views 1 this week
no commentswrite comment
1 2 3 4 5
3 more votes to show rating
add to favorites
launch autoscroll
font size
0
reset
guitar tuner
Autoscroll
slow
fast
+/-
esc
set tempo
stop
Help us to improve Ultimate-Guitar.com Take our survey!
×
Author
HEADING FOR NOWHERE - JETS OVERHEAD

Tabbed By: Dave
 
Tuning: Standard

INTRO/VERSE
G|-------------------------------0-0-----------------------------------------|
D|---------------2-2-2-2-------------0-0-0-0-0-0-0-0-0-0-0-0-0-0-2-----------| x7
A|-3-3-3-3-3-3-3-------------------------------------------------------------|
E|---------------------------------------------------------------------------|

PRE-CHORUS
G|-------------------------------0-0-----------------------------------------|
D|-----------------2-2-2-2-2-2-2-----0-0-0-0-0-0-0-0-0-0-0-0-0-0-0-----------| x4
A|-3-3-3-3-3-3-3-3-----------------------------------------------------------|
E|---------------------------------------------------------------------------|

CHORUS
G|---------------------------------------------------------------------------|
D|---------------------------------0-0-0-0-0-0-0-0-0-0-0-0-0-0-0-0-----------| x2
A|-3-3-3-3-3-3-3-3-----------------------------------------------------------|
E|-----------------3-3-3-3-3-3-3-3-------------------------------------------|

VERSE x4
PRE-CHORUS x2
CHORUS x8
PRE-CHORUS x1

OUTRO
G|---------------------------------------------------------------------------|
D|-----------------2-2-2-2-2-2-2-2-0~----------------------------------------| 
A|-3-3-3-3-3-3-3-3-----------------------------------------------------------|
E|---------------------------------------------------------------------------|

the end


Note: I saw a live video of Jets Overhead playing this song and the bass player 
(Jocelyn Greenwood) 
plays it like this:



INTRO/VERSE
G|---------------------------------------------------------------------------------|
D|---------------------------------------------------------------------------------| x7
A|---------------7-7-7-7---------10-10-------------------------------------------7-|
E|-8-8-8-8-8-8-8-----------------------10-10-10-10-10-10-10-10-10-10-10-10-10-10---|

PRE-CHORUS
G|----------------------------------------------------------------------------------|
D|----------------------------------------------------------------------------------| x4
A|-----------------7-7-7-7-7-7-7-10-10----------------------------------------------|
E|-8-8-8-8-8-8-8-8---------------------10-10-10-10-10-10-10-10-10-10-10-10-10-10-10-|

CHORUS
G|---------------------------------------------------------------------------------|
D|---------------------------------------------------------------------------------| x2
A|---------------------------------------------------------------------------------|
E|-8-8-8-8-8-8-8-8-3-3-3-3-3-3-3-3-10-10-10-10-10-10-10-10-10-10-10-10-10-10-10-10-|

VERSE x4
PRE-CHORUS x2
CHORUS x8
PRE-CHORUS x1

OUTRO
G|---------------------------------------------------------------------------|
D|---------------------------------------------------------------------------| 
A|---------------------------------------------------------------------------|
E|-8-8-8-8-8-8-8-8-7-7-7-7-7-7-7-7-10~---------------------------------------|

the end
Suggest correction
Give kudos to tab author, rate the tab!
1 2 3 4 5
comments
print report bad tab
guest
You may want to rate the tab now too:
select rating
Wanna post a correction for this tab? Suggest correction