Oops, an error
Loading. Please wait.

No Nations Bass Tab

351 views 1 this week
no commentswrite comment
1 2 3 4 5
excellent!
x 1
add to favorites
launch autoscroll
font size
0
reset
guitar tuner
Tab Pro tools
  • play this tab
  • loop segment
  • change instrument
  • show fretboard
  • metronome
Autoscroll
slow
fast
+/-
esc
set tempo
stop
Contributor
-------------------------------------------------------------------------------
			     No Nations - Jets Overhead
-------------------------------------------------------------------------------

Tabbed By : Hot-Pyro
e-mail: burn2live.live2burn@hotmail.com

Tuning: Standard (EADG)

Intro 

(0:04)
G|---------------------------------------------------------------------------|
D|-----13------13--------11----11--------9------9--------8-----8-------------| 
A|-11----11-11----11\9-9---9-9----9\7-7----7-7----7\6-6---6-6----6-----------|      x2
E|---------------------------------------------------------------------------|

Verse 1

(0:20)
G|---------------------------------------------------------------------------|
D|-----13------13--------11----11--------9------9--------8-----8-------------| 
A|-11----11-11----11\9-9---9-9----9\7-7----7-7----7\6-6---6-6----6-----------|      x2
E|---------------------------------------------------------------------------|
   
(0:37)
G|---------------------------------------------------------------------------|
D|-----13------13------------------------------------------------------------| 
A|-11----11-11----11\4-4-4-4-4-4-4\2-2-2-2-2-2-2/6-6-6-6-6-6-6---------------|      
E|---------------------------------------------------------------------------|

(0:45)
G|---------------------------------------------------------------------------|
D|-----13------13--------11----11--------9------9--------8-----8-------------| 
A|-11----11-11----11\9-9---9-9----9\7-7----7-7----7\6-6---6-6----6-----------|     
E|---------------------------------------------------------------------------|

Vocal Break

(0:53)
G|---------------------------------------------------------------------------|
D|-----13------13--------11----11--------9------9--------8-----8-------------| 
A|-11----11-11----11\9-9---9-9----9\7-7----7-7----7\6-6---6-6----6-----------|     
E|---------------------------------------------------------------------------|

(1:01)
G|---------------------------------------------------------------------------|
D|-----13------13------------------------------------------------------------| 
A|-11----11-11----11\4-4-4-4-4-4-4\2-2-2-2-2-2-2/6-6-6-6-6-6-6---------------|      
E|---------------------------------------------------------------------------|

Verse 2

(1:10)
G|---------------------------------------------------------------------------|
D|-----13------13--------11----11--------9------9--------8-----8-------------| 
A|-11----11-11----11\9-9---9-9----9\7-7----7-7----7\6-6---6-6----6-----------|      x2
E|---------------------------------------------------------------------------|

(1:26)
G|---------------------------------------------------------------------------|
D|-----13------13------------------------------------------------------------| 
A|-11----11-11----11\4-4-4-4-4-4-4\2-2-2-2-2-2-2/6-6-6-6-6-6-6---------------|      
E|---------------------------------------------------------------------------|

(1:34)
G|---------------------------------------------------------------------------|
D|-----13------13--------11----11--------9------9--------8-----8-------------| 
A|-11----11-11----11\9-9---9-9----9\7-7----7-7----7\6-6---6-6----6-----------|
E|---------------------------------------------------------------------------|

Chorus

(1:43)                       (1:51)
G|----------------|          G|---------------------|
D|--8-9-6--8-9-6--|          D|-11-13-10--11-13-10--|
A|----------------| x2       A|---------------------| x2
E|----------------|          E|---------------------|

Bridge

(1:59)
G|---------------------------------------------------------------------------|
D|---------------------------------------------------------------------------|
A|--11-11-11-11-11-11-11\9-9-9-9-9-9-9\7-7-7-7-7-7-7-7-7\6-6-6-6-6-6-6-6-----| x2
E|---------------------------------------------------------------------------|

Solo

(2:15)
G|---------------------------------------------------------------------------|
D|-----13------13--------11----11--------9------9--------8-----8-------------| 
A|-11----11-11----11\9-9---9-9----9\7-7----7-7----7\6-6---6-6----6-----------| x2
E|---------------------------------------------------------------------------|

Chorus/Outro

(2:32)                     
G|----------------|          
D|--8-9-6--8-9-6--|          
A|----------------|  x4    
E|----------------|        

| /  slide up
| \  slide down
| h  hammer-on
| p  pull-off
| ~  vibrato
| +  harmonic
| x  Mute note

Jets Overhead Official Website: www.jetsoverhead.com
===============================================================================
comments
We did not receive enough feedback on this tab! Please rate:
print report bad tab
1 2 3 4 5
I want to post or [tab]
guest
You may want to rate the tab now too:
select rating
Please do not post tabs as comments. Select "correction" instead!