Oops, an error
Loading. Please wait.

Shadow Knows chords

46 views 1 this week
5 commentsread comments
1 2 3 4 5
1 last vote to show rating
add to favorites
×
Save as Personal and add changes to this tab that will be seen only by you. Learn more ›
×
You can save this tab as Personal to edit and correct it or add notes. All changes will be seen only by you. Learn more »
launch autoscroll
font size
0
reset
transpose
0
reset
simplify chords
display chords
guitar tuner
edit
Autoscroll
slow
fast
+/-
esc
set tempo
stop
About this tab version
Hi there, the intro riff is used over the initial verses, wrote the chords name so you can use as a reference. As always suggestions and corrections are welcome. Was this info helpful? Yes No
Strumming
There is no strumming pattern for this song yet. and get +5 IQ
Video https://www.youtube.com/watch?v=xSKlAqZHI4I
Jets Overhead Shadow Knows
No Capo


[Chords]

    D5 Dsus4  Dsus2   D9                                              
e|--5----3-----0------0----------------------------------|
B|--3----3-----3------1----------------------------------|
G|--2----2-----2------2----------------------------------|
D|--0----0-----0------0----------------------------------|
A|--x----x-----x------x----------------------------------|
E|--x----x-----x------x----------------------------------|


[Main riff]

   D                                   D9                 G
e|-----------------------------------------------------------------------------|
B|-----------------------------------------------------------------------------|
G|-2/7-7-7--7-7-7-7--7-7-7-7--7-7-7-7--2/5-5-5--5-5-5-5---2/4-4-4--4-4-4-4-----|
D|-0---0-0--0-0-0-0--0-0-0-0--0-0-0-0--0---0-0--0-0-0-0---0---0-0--0-0-0-0-----|
A|-----------------------------------------------------------------------------|
E|-----------------------------------------------------------------------------|


[Intro]

   D                                   D9                 G
e|-----------------------------------------------------------------------------|
B|-----------------------------------------------------------------------------|
G|-2/7-7-7--7-7-7-7--7-7-7-7--7-7-7-7--2/5-5-5--5-5-5-5---2/4-4-4--4-4-4-4-----|
D|-0---0-0--0-0-0-0--0-0-0-0--0-0-0-0--0---0-0--0-0-0-0---0---0-0--0-0-0-0-----|
A|-----------------------------------------------------------------------------|
E|-----------------------------------------------------------------------------|

   D                                   
e|-----------------------------------------------------------------------------|
B|-----------------------------------------------------------------------------|
G|-2/7-7-7--7-7-7-7------------------------------------------------------------|
D|-0---0-0--0-0-0-0------------------------------------------------------------|
A|-----------------------------------------------------------------------------|
E|-----------------------------------------------------------------------------|


[Verse 1]

               D9                 
Shadows in my lane
     G               D              
Lie long against my heels
                   D9             
A well of passive pain
   G               D              
Ahead to spin my wheels


[Verse 2]

                         D9      
They thought that it was over
 G     D                          
Long ago
                   D9             
Crept over their shoulder
  G      D                        
Shadow knows


[Chorus]

 D     D5  Dsus4 D C                    
But I don't       mind
G        D                   
I never do
         D5  Dsus4   D  C
Let us start at    the top
G               D
I am just like you


[Verse 3]

                 D9               
If she was only me
    G           D                 
And I was only you
                        D9        
Expectations what the seem
   G                 D            
A simpler point of view


[Verse 4]

               D9                
Planet spins around you
  G     D                         
Grab a hold
             D9                   
Happiness escapes you
 G         D                      
Don't grow old


[Chorus]

 D     D5  Dsus4 D C                    
But I don't       mind
G        D                   
I never do
         D5  Dsus4   D  C
Let us start at    the top
G               D5
I am just like you

D Dsus4 D Dsus4 D 

D Dsus4 D Dsus4 D D5

D Dsus4 D Dsus4 D 

D Dsus4 D Dsus4 D D5

Dsus4 D Dsus2 D


[Bridge]

 A                    G      A
Sitting watching the sun go
                      G
Sitting watching the sun go down
 A                                       
N.C.                                       
But I don't mind 
            D
No I don't mind 
D  D5    C 
I don't mind 
G        D   C  G
I never do


[Chorus]

 D     D5  Dsus4 D C                                          
But I don't mind    
G        D                                    
I never do
         D5  Dsus4   D  C
Let us start at    the top
G               D
I am just like you


[Outro]

 D     D5  Dsus4 D C   G  D                                     
But I don't mind    
 D     D5    D C   G  D                                     
But I don't mi_________nd    

D Dsus4 D Dsus4 D 

D Dsus4 D Dsus4 D D5

D Dsus4 D Dsus4 D 

D Dsus4 D Dsus4 D D5

Dsus4 D Dsus2 

e|---------------------------------------------------|
B|---------------------------------------------------|
G|--2/7--2/5--2/4---2/7---2/5--2/4-------------------|
D|---------------------------------------------------|
A|---------------------------------------------------|
E|---------------------------------------------------|

End on:

D



************************************
N.C.
| x  Dead note
N.C.
| /  Slide up
************************************

            
            
Suggest correction
Creating personal tab
Creating personal tab
You can edit any tab online and save it as your Personal.

You can edit, replace or remove any tab part or add personal notes – all changes will be seen only by you.

Personal tabs can be accessed anytime from any device, even offline.
Learn more »
Give kudos to tab author, rate the tab!
1 2 3 4 5
comments
print report bad tab
5 comments total. Showing first comments.
+1 reply
schoben 3,352 Aug 19, 2016 05:48 AM

cool song! nicely done, Guille:)

+1 reply
motoclangers [tm] 12,881 Aug 21, 2016 12:00 PM

Well done mate

0 reply
guillermopeitto 10,340 Aug 21, 2016 02:04 PM

Thank you Mark!

guest
You may want to rate the tab now too:
select rating
Wanna post a correction for this tab? Suggest correction