Oops, an error
Loading. Please wait.

Morning New Disease Bass Tab

220 views 3 this week
1 commentread comment
1 2 3 4 5
3 more votes to show rating
add to favorites
launch autoscroll
font size
0
reset
guitar tuner
×
Best way to learn
"Morning New Disease"
Autoscroll
slow
fast
+/-
esc
set tempo
stop
-------------------------------------------------------------------------------
			     MORNING NEW DISEASE - Jets to Brazil
-------------------------------------------------------------------------------

Tabbed By : leftoverfiller
e-mail: leftoverfiller22@hotmail.com

Tuning: E


Intro/Verse: (x4)
G|--------------------------------------|
D|--------------------------------------|
A|-55-555-555-555-555-5s7p-----5s7p-----|
E|-------------------------000------000-|
Morning new disease, charcoal in bed... 

Bridge 1: (x1)
G|--------------------------------------------------------------|
D|------------------7----------------------------7--------------|
A|-7-5-33-0h3-55-55---77-77-57-7-77-33-0h3-55-55---7-77-57-7-77-|
E|--------------------------------------------------------------|
To the scraping of flatware and china...

Verse (x2)

Bridge 2: (x1)
G|------------------------------------------------------------------------|
D|------------------7------------------5-55----------7-77-----5-----------|
A|-7-5-33---55-55-5---7-77-5-7-77-5-33-------3-33-5-5-------77---77-5-77--|
E|--------3---------------------------------------------------------------|
In their milkflats with five kids too many...

Pre-chorus: (x1)
G|--------------------------------------------------------------------------|
D|---s9-7------------------------------------s9-7---------------9---9-------|
A|-5---------------------------------------5----------------------7---7--77-|
E|--------5-555555-0000-7777-9999-10101010--------5-555555-0-00-------------|
And you're thinking the same two things, over and over again...

Chorus: (x1)
G|---------------------------------------------------------|
D|---------------------------------------------------------|
A|-77777777-------------4-5-77777777-------------------4-5-|
E|----------777777s9-55--------------777777s9-55555555-----|
I am dreaming of a life, I am dreaming of waking up...

G|-------------------------------|---------------------------------|
D|-------------------------------|---------------------------------|
A|-7~-5~-3~-7~-------------------|-----------------------------5-7-|
E|-------------------------------|-7-7-7-7-7-7-7-9-5-5-5-5-5-5-----|
Love came like an axe... There's a black rewarding book beneath...

Intro/Verse (x4)
Bridge 1 (x1)
Intro/Verse (x2)
Bridge 2 (x1)
Pre-chorus (x1)

Last chorus: (x1)

G|---------------|----------------------|
D|---------------|----------------------|
A|---------------|------------------4-5-|
E|---------------|-777777s9-5555555-----|

G|-------------|------------------------------|-------------|
D|-------------|------------------------------|-------------|
A|-7~-5~-3~-7~-|------------------------------|-3-5---------|
E|-------------|-7-7-7-7-7-7-7-9-5-5-5-5-5-5--|-------------|
Love came like...And a rich deserving book... And I awoke

Intro/Verse (x4)

Outro:
G|-------|
D|-------|
A|-77-77-|
E|-------|

| /  slide up
| \  slide down
| h  hammer-on
| p  pull-off
| ~  vibrato
| +  harmonic
| x  Mute note
===============================================================================
Suggest correction
Give kudos to tab author, rate the tab!
1 2 3 4 5
comments
print report bad tab
1 comment total.
0 reply
leftoverfiller 30 May 21, 2003 08:00 PM

I guess I wasn't 99% correct, the first part of the chorus (the "I am dreaming of a life..." part) should be like this:

G|-----------------------------|
D|-----------------------------|
A|-77---------4-77---------4-7-|
E|----77s9-55------77s9-55-----|

so the last chorus would be:

G|---------------|-------------|
D|---------------|-------------|
A|---------------|---------4-7-|
E|---------------|-77s9-55-----|

Sorry about that. - Matt

guest
You may want to rate the tab now too:
select rating
Wanna post a correction for this tab? Suggest correction