Oops, an error
Loading. Please wait.

Do You Love Me At All Tab

version 1
version 1

Whole song

70 views 12 this week
no commentswrite comment
1 2 3 4 5
3 more votes to show rating
add to favorites
launch autoscroll
font size
0
reset
how to read this tab
guitar tuner
Autoscroll
slow
fast
+/-
esc
set tempo
stop
Help us to improve Ultimate-Guitar.com Take our survey!
×
Author
Difficulty
intermediate
Title: Do You Love Me At All
Artist: Jett Rebel
Album: Venus & Mars (2014)


[Intro]
(0:01)
Guitar 1: 
e|-------------------------------------------------------------------------------------------------------|
B|-------------------------------------------------------------------------------------------------------|
G|-----------------------------------------------------10-10-10-10-10-10-10-10---7--7--7--7--7--7--7--7--|
D|--7--7--7--7--7--7--7--7---10-10−10-10-10-10-10-10---10-10-12-10-10-10-12-10---7--7--9--7--7--7--9--7--|
A|--7--7−-9--7--7--7--9--7---10-10-12-10-10-10-12-10---8--8--8--8--8--8--8--8----5--5--5--5--5--5--5--5--|
E|--5--5−-5−-5−-5−-5--5--5---8--8--8--8−-8--8--8--8------------------------------------------------------|

Guitar 2:
e|-----------------------------------------------------------------------------8−−−−8−−−−−−−−−−−−−−−−----|
B|-----------------------------------------------------10-9-8------9-8-----------------10−−−−8−−10−8−−---|
G|-----------------------------------------------------------------------------------------------−----9--|
D|-------------------------------------------------------------------------------------------------------|
A|-------------------------------------------------------------------------------------------------------|
E|-------------------------------------------------------------------------------------------------------|
                     
Guitar 1: 
e|-------------------------------------------------------------------------------------------------------|
B|-------------------------------------------------------------------------------------------------------|
G|-----------------------------------------------------10-10-10-10-10-10-10-10---------------------7--7--|
D|--7--7--7--7--7--7--7--7---10-10−10-10-10-10-10-10---10-10-12-10-10-10-12-10---------------------7--7--|
A|--7--7−-9--7--7--7--9--7---10-10-12-10-10-10-12-10---8--8--8--8--8--8--8--8----------------------5--5--|
E|--5--5−-5−-5−-5−-5--5--5---8--8--8--8−-8--8--8--8------------------------------------------------------|

Guitar 2:
e|--------------------------------------------------------------------------−−−−−−−−−−−−--−−−−−−−−−−-----|
B|-------------------------------------------------------------------------------------------------------|
G|-----------------------7------7-----------------------------------------------------------−------------|
D|--9--9--7-----9--7--9------------10−--10-----7--5----7-------------------------------------------------|
A|--------------------------------------------------------5--6-5---5-------------------------------------|
E|--------------------------------------------------------------8------7b8−-5----------------------------|
                      
(0:13)
Both guitars:
e|--------------------------------------------------------------------|
B|--------------------------------------------------------------------|
G|--------------------------------------10--10-10-10-9-8-7-7-7-7-7-7--|
D|--7--7-7-7-8-9-10--10-10-10-10-10-10--10--10-10-10-9-8-7-7-7-7-7-7--|
A|--7--7−7-7-8-9-10--10-10-10-10-10-10--8−--8--8--8--7-6-5-5-5-5-5-5--|
E|--5--5−5−5−6-7−8−--8--8−-8--8--8--8−−−−−−−−−−−----------------------|
                                                                          2x

[Verse]
(0:25) “What are you doing to me...”
Guitar 1:
e|--5---5---5---5---5---5---5--|
B|--5---5---5---5---5---5---5--|
G|-----------------------------|
D|-----------------------------|
A|-----------------------------|
E|-----------------------------|
                                 repeat throughout whole verse

(0:37) “You’re crawling under my skin...” / “I can’t believe the state that I’m in...”
Guitar 2:
e|--------------------------------------------------------------------------------------|
B|--------------------------------------------------------------------------------------|
G|---------------------------------------------12-12-12-12-12-12--10----9-9-9-9-9-9--7--|
D|--9-9-9-9-9-9--7----12-12-12-12-12-12--10----10-10-10-10-10-10--10−−--7-7-7-7-7-7--7--|
A|--7-7-7-7-7-7--7----10-10-10-10-10-12--10----8--8--8--8--8--8−−-8-−−--5−5−5−5−5−5−-5--|
E|--5-5-5-5-5-5−-5----8--8--8--8--8--8−--8----------------------------------------------|
    (palm mute, use delay effect)                                                          2x


[Chorus]
(0:49) “I’m surprised that you called...” / “That I was just a prize on your wall...”
Both guitars:
e|--------------------------------------------------------------------|
B|--------------------------------------------------------------------|
G|--------------------------------------10--10-10-10-9-8-7-7-7-7-7-7--|
D|--7--7-7-7-8-9-10--10-10-10-10-10-10--10--10-10-10-9-8-7-7-7-7-7-7--|
A|--7--7−7-7-8-9-10--10-10-10-10-10-10--8−--8--8--8--7-6-5-5-5-5-5-5--|
E|--5--5−5−5−6-7−8−--8--8−-8--8--8--8−−−−−−−−−−−----------------------|
                                                                          2x

[Verse]
(1:00) “Have you been sneaking around...”
Guitar 1: 
e|--5---5---5---5---5---5---5--|
B|--5---5---5---5---5---5---5--|
G|-----------------------------|
D|-----------------------------|
A|-----------------------------|
E|-----------------------------|
                                 Repeat throughout whole verse

(1:13) “You’re crawling under my skin...” / “I can’t believe the state that I’m in...”
Guitar 2:
e|--------------------------------------------------------------------------------------|
B|--------------------------------------------------------------------------------------|
G|---------------------------------------------12-12-12-12-12-12--10----9-9-9-9-9-9--7--|
D|--9-9-9-9-9-9--7----12-12-12-12-12-12--10----10-10-10-10-10-10--10−−--7-7-7-7-7-7--7--|
A|--7-7-7-7-7-7--7----10-10-10-10-10-12--10----8--8--8--8--8--8−−-8-−−--5−5−5−5−5−5−-5--|
E|--5-5-5-5-5-5−-5----8--8--8--8--8--8−--8----------------------------------------------|
    (palm mute, use delay effect)                                                          2x

[Chorus]
(1:25) “I’m surprised that you called...” / “That I was just a prize on your wall...”
Both guitars:
e|--------------------------------------------------------------------|
B|--------------------------------------------------------------------|
G|--------------------------------------10--10-10-10-9-8-7-7-7-7-7-7--|
D|--7--7-7-7-8-9-10--10-10-10-10-10-10--10--10-10-10-9-8-7-7-7-7-7-7--|
A|--7--7−7-7-8-9-10--10-10-10-10-10-10--8−--8--8--8--7-6-5-5-5-5-5-5--|
E|--5--5−5−5−6-7−8−--8--8−-8--8--8--8−−−−−−−−−−−----------------------|
                                                                          4x

[Bridge] 
(1:50) “Since you've been thinking 'bout it constantly...”
No guitar here, only bass and vocals

[Solo]
(2:01)
Guitar 1:
e|--------------------------------------------|
B|-----------------------9-10-10-10-10-9-8-7--|
G|------------------9-------------------------|
D|--9b11--9b11br9-7---------------------------|
A|--------------------------------------------|
E|--------------------------------------------|

Guitar 2:
e|--------------------------------------------|
B|--------------------------------------------|
G|------------------9----9-10-10-10-10-9-8-7--|
D|--9b11--9b11br9-7---------------------------|
A|--------------------------------------------|
E|--------------------------------------------|

(2:07)
Guitar 1:
e|------------------------------------------|
B|---------------------------8-8b10br8-8-7--|
G|------------------9----7-9----------------|
D|--9b11--9b11br9-7-------------------------|
A|------------------------------------------|
E|------------------------------------------|

Guitar 2: 
e|----------------------------7b9br7--7-5--|
B|-----------------------------------------|
G|------------------9----------------------|
D|--9b11--9b11br9-7------------------------|
A|-----------------------------------------|
E|-----------------------------------------|

[Chorus]
(2:13) “I’m surprised that you called...” / “That I was just a prize on your wall...”
Both guitars:
e|---------------------------------------------------------------------|
B|---------------------------------------------------------------------|
G|--7--7-7-7-8-9-10--10-10-10-10-10-10−−−−−−−−−−−−−−−−−−−−−−−−−−−−−----|
D|--7--7−7-7-8-9-10--10-10-10-10-10-10--8--8-8-8-7-6-5--5-5-5-5-5-5-5--|
A|--5--5−5−5−6-7−8−--8--8−-8--8--8--8−−−8−−8−8−8−7−6−5−-5-5-5-5-5-5-5--|
E|--------------------------------------6--6-6-6-5-4-3--3-3-3-3-3-3-3--|
                                                                         2x

(2:25) “Thought you didn’t love me at all, I, I, I, thought you didn’t love me at all...”
Both guitars:
e|------------------------------------------------------------------------------|
B|------------------------------------------------------------------------------|
G|--7-7-7-7-7-7-7-7--10-10-10-10-10-10-10-10------------------------------------|
D|--7-7-7-7-7-7-7-7--10-10-10-10-10-10-10-10--8-8-8-8-8-8-8-8−−−−−−−−−−−−−−−----|
A|--5-5-5-5-5-5-5-5--8--8--8--8--8--8--8--8---8-8-8-8-8-8-8-8−−−−−−−−−−−−−−−----|
E|--------------------------------------------6-6-6-6-6-6-6-6--7-7-7-7-7-7-7-7--|

e|------------------------------------------------------------|
B|------------------------------------------------------------|
G|--7-7-7-7-7-7-7-7--10--10-10-10-10-10-10--------------------|
D|--7-7-7-7-7-7-7-7--10--10-10-10-10-10-10--8--8-8-8-8-8-8-5--|
A|--5-5-5-5-5-5-5-5--8−--8--8--8--8--8--8---8--8-8-8-8-8-8-5--|
E|------------------------------------------6--6-6-6-6-6-6-3--|
                                                           (let ring & slide up afterwards)

 −−−−−−−−−−−−−−−−--
| b   bend         |
| br  bend release |
 −−−−−−−−−−−−−−−−--

Suggest correction
Give kudos to tab author, rate the tab!
1 2 3 4 5
comments
print report bad tab
guest
You may want to rate the tab now too:
select rating
Wanna post a correction for this tab? Suggest correction