Oops, an error
Loading. Please wait.

Calling You chords

6,697 views 87 this week
2 commentsread comments
1 2 3 4 5
x 14
add to favorites
×
Save as Personal and add changes to this tab that will be seen only by you. Learn more ›
×
You can save this tab as Personal to edit and correct it or add notes. All changes will be seen only by you. Learn more »
launch autoscroll
font size
0
reset
transpose
0
reset
display chords
guitar tuner
edit
Autoscroll
slow
fast
+/-
esc
set tempo
stop
Strumming
There is no strumming pattern for this song yet. and get +5 IQ
Song: Calling You (J Steele version)
Artist: Jevetta Steele 
Songwriter: Bob Telson
Chors/Tab analysis: Mats Fagergren 

version, see you tube: https://youtu.be/hPPS0_rqwcw

Several versions exist on UG when it comes to this fantastic song.
I Like the "J Steele" version. 
I have included both tabs and chords including updated interlude as well as 
the ending (that have some new chords/tabs)

The Chords = tabs.

The finger picking/chords require that your fingers are long and 
and stretchy, so I have arranged the chords and tabs with:
 
******************************
* Capo on the third (3) fret * 
*                            *
******************************
 
[verse 1]

 Bm(b13)          Csus2(#11)  
e--------------I--------------I
B----------3---I---------3----I
G--------0-----I-------0------I
D------4-------I-----4--------I
A---2----------I---3----------I
E--------------I--------------I

A desert road from Vegas to nowhere,

  Em9            A7sus4
e--------------I--------------I
B----------3---I---------3----I
G--------0-----I-------0------I
D------4-------I-----2--------I
A--------------I---0----------I
E---0----------I--------------I

Some place better than where you've been.

 Bm(b13)         Csus2(#11)  
e---------------I--------------I 
B----------3----I----------3---I 
G--------0------I--------0-----I 
D-----4---------I------4-------I 
A--2------------I----3---------I 
E---------------I--------------I

A coffee machine that needs some fixing

  Em9            A7sus4
e--------------I--------------I
B----------3---I---------3----I
G--------0-----I-------0------I
D------4-------I-----2--------I
A--------------I---0----------I
E---0----------I--------------I

In a little cafe just around the bend.

[chorus]

  Cm6/Eb         D/C  
e-------------3-I-----------2--I 
B----------1----I---------3----I 
G--------2------I------2-------I 
D-----1---------I--------------I 
A---------------I----3---------I 
E---------------I--------------I

I.............................am 

 Bm7-5           E7 
e-------------1-I-----------0--I 
B----------3----I---------3----I 
G-------2-------I------1-------I 
D---------------I--------------I 
A----2----------I--------------I 
E---------------I--0-----------I
calling.....    you.           Can't you hear me?

 Dbm7-5            Gbaug  
e-------------3-I-----------2--I 
B----------5----I---------3----I 
G--------4------I------3-------I 
D---------------I----4---------I 
A-----4---------I--------------I 
E---------------I--------------I

I.............................am 

 Bm7-5           E7/D 
e-------------1-I-----------0--I 
B----------3----I---------3----I 
G-------2-------I------1-------I 
D---------------I--0-----------I 
A----2----------I--------------I 
E---------------I--------------I
calling.....    you.            
 

[verse 2]

 Bm(b13)         Csus2(#11)  
e---------------I--------------I 
B----------3----I----------3---I 
G--------0------I--------0-----I 
D-----4---------I------4-------I 
A--2------------I----3---------I 
E---------------I--------------I

  A hot dry wind  blows right through me.

  Em9            A7sus4
e--------------I--------------I
B----------3---I---------3----I
G--------0-----I-------0------I
D------4-------I-----2--------I
A--------------I---0----------I
E---0----------I--------------I

The baby's crying and I can't sleep,

 Bm(b13)         Csus2(#11)  
e---------------I--------------I 
B----------3----I----------3---I 
G--------0------I--------0-----I 
D-----4---------I------4-------I 
A--2------------I----3---------I 
E---------------I--------------I

But we both know a change is coming,

  Em9            A7sus4
e--------------I--------------I
B----------3---I---------3----I
G--------0-----I-------0------I
D------4-------I-----2--------I
A--------------I---0----------I
E---0----------I--------------I

Coming closer   sweet release.

[chorus]

 Cm6/Eb          D/C 
e-------------3-I-----------2--I 
B----------1----I---------3----I 
G--------2------I------2-------I 
D-----1---------I--------------I 
A---------------I----3---------I 
E---------------I--------------I

I.............................am 

 Bm7-5           E7 
e-------------1-I-----------0--I 
B----------3----I---------3----I 
G-------2-------I------1-------I 
D---------------I--------------I 
A----2----------I--------------I 
E---------------I--0-----------I
calling.....    you.           I know You hear mem!

 Dbm7-5           Gbaug  
e-------------3-I-----------2--I 
B----------5----I---------3----I 
G--------4------I------3-------I 
D---------------I---4----------I 
A-----4---------I--------------I 
E---------------I--------------I

I.............................am 

 Bm7-5           E7/D
e-------------1-I-----------0--I 
B----------3----I---------3----I 
G-------2-------I------1-------I 
D---------------I--0-----------I 
A----2----------I--------------I 
E---------------I--------------I

calling.....    you.            
 
[interlude]

  Cmadd9/Eb       D7 
e---------------I--------------I 
B-----------3---I-----------3--I 
G---------5-----I---------5----I 
D-------5-------I------4-------I 
A----6----------I---5----------I 
E---------------I--------------I
Ohooooooo.......................

 Bbadd9           F7sus4/Bb      Bbadd9        Eb6/Bb
e---------------I--------------I--------------I--------------I
B-----------3---I-----------4--I----------3---I------------1-I
G---------5-----I---------5----I--------5-----I---------3----I
D-------3-------I------3-------I------3-------I------1-------I
A----1----------I---1----------I----1---------I---1----------I
E---------------I--------------I--------------I--------------I

 Bbadd9           F7sus4/Bb      Bbadd9         Gsus4   D7
e---------------I--------------I--------------I--------------I 
B-----------3---I-----------4--I-----------3--I------3-----3-I
G---------5-----I---------5----I---------5----I-----5-----5--I
D-------3-------I------3-------I------3-------I---5------4---I
A----1----------I---1----------I----1---------I--------------I
E---------------I--------------I--------------I--------------I

[chorus]

  Cm6/Eb         D/C  
e-------------3-I-----------2--I 
B----------1----I---------3----I 
G--------2------I------2-------I 
D-----1---------I--------------I 
A---------------I----3---------I 
E---------------I--------------I

I.............................am 

 Bm7-5           E7 
e-------------1-I-----------0--I 
B----------3----I---------3----I 
G-------2-------I------1-------I 
D---------------I--------------I 
A----2----------I--------------I 
E---------------I--0-----------I
calling.....    you.           I know you you hear me!

 Dbm7-5            Gbaug  
e-------------3-I-----------2--I 
B----------5----I---------3----I 
G--------4------I------3-------I 
D---------------I----4---------I 
A-----4---------I--------------I 
E---------------I--------------I

I.............................am 

 Bm7-5           E7/D 
e-------------1-I-----------0--I 
B----------3----I---------3----I 
G-------2-------I------1-------I 
D---------------I--0-----------I 
A----2----------I--------------I 
E---------------I--------------I
calling.....    you.            

[verse 1]

 Bm(b13)          Csus2(#11)  
e--------------I--------------I
B----------3---I---------3----I
G--------0-----I-------0------I
D------4-------I-----4--------I
A---2----------I---3----------I
E--------------I--------------I

A desert road from Vegas to nowhere,

  Em9            A7sus4
e--------------I--------------I
B----------3---I---------3----I
G--------0-----I-------0------I
D------4-------I-----2--------I
A--------------I---0----------I
E---0----------I--------------I

Some place better than where you've been.

 Bm(b13)         Csus2(#11)  
e---------------I--------------I 
B----------3----I----------3---I 
G--------0------I--------0-----I 
D-----4---------I------4-------I 
A--2------------I----3---------I 
E---------------I--------------I

A coffee machine that needs some fixing

  Em9            A7sus4
e--------------I--------------I
B----------3---I---------3----I
G--------0-----I-------0------I
D------4-------I-----2--------I
A--------------I---0----------I
E---0----------I--------------I

In a little cafe just around the bend.

[Verse2]

 Bm(b13)         Csus2(#11)  
e---------------I--------------I 
B----------3----I----------3---I 
G--------0------I--------0-----I 
D-----4---------I------4-------I 
A--2------------I----3---------I 
E---------------I--------------I

A hot dry wind  blows right through me.

  Em9            A7sus4
e--------------I--------------I
B----------3---I---------3----I
G--------0-----I-------0------I
D------4-------I-----2--------I
A--------------I---0----------I
E---0----------I--------------I

The baby's crying and I can't sleep,

 Bm(b13)         Csus2(#11)  
e---------------I--------------I 
B----------3----I----------3---I 
G--------0------I--------0-----I 
D-----4---------I------4-------I 
A--2------------I----3---------I 
E---------------I--------------I

And I can feel a change is coming,

  Em9            A7sus4
e--------------I--------------I
B----------3---I---------3----I
G--------0-----I-------0------I
D------4-------I-----2--------I
A--------------I---0----------I
E---0----------I--------------I

Coming closer   sweet release.

[chorus]

  Cm6/Eb         D/C  
e-------------3-I-----------2--I 
B----------1----I---------3----I 
G--------2------I------2-------I 
D-----1---------I--------------I 
A---------------I----3---------I 
E---------------I--------------I

I.............................am 

 Bm7-5           E7 
e-------------1-I-----------0--I 
B----------3----I---------3----I 
G-------2-------I------1-------I 
D---------------I--------------I 
A----2----------I--------------I 
E---------------I--0-----------I
calling.....    you.           Can't you hear me?

 Dbm7-5            Gbaug  
e-------------3-I-----------2--I 
B----------5----I---------3----I 
G--------4------I------3-------I 
D---------------I----4---------I 
A-----4---------I--------------I 
E---------------I--------------I

I.............................am 

 Bm7-5           E7/D 
e-------------1-I-----------0--I 
B----------3----I---------3----I 
G-------2-------I------1-------I 
D---------------I--0-----------I 
A----2----------I--------------I 
E---------------I--------------I
calling.....    you.            

[chorus-pre-outro]


  Cm6/Eb          D/C  
e-------------3-I-----------2--I 
B----------1----I---------3----I 
G--------2------I------2-------I 
D-----1---------I--------------I 
A---------------I----3---------I 
E---------------I--------------I

 

 Bm7-5           E7 
e-------------1-I-----------0--I 
B----------3----I---------3----I 
G-------2-------I------1-------I 
D---------------I--------------I 
A----2----------I--------------I 
E---------------I--0-----------I
 
Ahahaaaa oaoaaaa.....

 Dbm7-5            Gbaug  
e-------------3-I-----------2--I 
B----------5----I---------3----I 
G--------4------I------3-------I 
D---------------I---4----------I 
A----4----------I--------------I 
E---------------I--------------I

Oooooo....

 Bm7-5            E7/D
e-------------1-I-----------0--I 
B----------3----I---------3----I 
G-------2-------I------1-------I 
D---------------I---0----------I 
A----2----------I--------------I 
E---------------I--------------I

ooo 

[outro]

 Am7-5            D7             Bm(b13)        C(#11)
e---------------I--------------I--------------I--------------I
B------------3--I----------3---I--------3-----I----------5---I 
G----------5----I--------5-----I------0-------I-------0------I 
D-------5-------I-----4------.-I----4---------I-----4--------I 
A---0-----------I--5-----------I--2-----------I--3-----------I
E---------------I--------------I--------------I--------------I     

 ..hmmmmmmmmmm.......

            
            
Suggest correction
Creating personal tab
Creating personal tab
You can edit any tab online and save it as your Personal.

You can edit, replace or remove any tab part or add personal notes – all changes will be seen only by you.

Personal tabs can be accessed anytime from any device, even offline.
Learn more »
comments
print report bad tab
2 comments total.
+1 reply
guillermopeitto 10,543 Apr 09, 2017 10:28 AM

Mats.... amazing job, I really enjoy playing this beautiful song, thanks.

0 reply
schoben 3,352 Apr 09, 2017 01:35 PM

beautiful song and perfect tab.. 5 Stars!

guest
You may want to rate the tab now too:
select rating
Wanna post a correction for this tab? Suggest correction