Oops, an error
Loading. Please wait.

Johnny D Tab

by JFA
235 views 1 this week
no commentswrite comment
1 2 3 4 5
please rate
add to favorites
launch autoscroll
font size
0
reset
how to read this tab
guitar tuner
Autoscroll
slow
fast
+/-
esc
set tempo
stop
Help us to improve Ultimate-Guitar.com Take our survey!
×
Author
Difficulty
novice
Song: Johnny D.
Artist: JFA
Album: We Know You Suck

Tabbed by: SK Punk

First tab, did my best, feedback would be appreciated.



Intro/verse, repeat as necessary:
 
e|------------------|-----------------|----------------|-----------------|
B|------------------|-----------------|----------------|-----------------|
G|------------------|-----------------|----------------|-----------------|
D|--7---7-7-7-7-7-7-|-4-4-4-5-5-5-4-4-|-7--7-7-7-7-7-7-|-10-10-10-5------|
A|--7---7-7-7-7-7-7-|-4-4-4-5-5-5-4-4-|-7--7-7-7-7-7-7-|-10-10-10-5------|
E|--5---5-5-5-5-5-5-|-2-2-2-3-3-3-2-2-|-5--5-5-5-5-5-5-|-8--8--8--3------|
    PM [_____________________________] PM [_________]


Pre-Chorus:

e|-(10)--(10)--(10)--(10)--(10)--(10)--(10)--(10)---|--------------------|
B|--10----10---10-----10----10----10----10----10----|-7-7-7-8-8-8-7-7----|
G|--12b14-12b14-12b14-12b14-12b14-12b14-12b14-12b14-|--------------------|
D|--------------------------------------------------|--------------------|
A|--------------------------------------------------|--------------------|
E|--------------------------------------------------|--------------------|

e|-(10)--(10)--(10)--(10)--(10)--(10)--(10)--(10)---|----------(8)-------|
B|--10----10---10-----10----10----10----10----10----|-13-13-13--8------O-|
G|--12b14-12b14-12b14-12b14-12b14-12b14-12b14-12b14-|-----------10b12----|
D|--------------------------------------------------|--------------------|
A|--------------------------------------------------|------------------O-|
E|--------------------------------------------------|--------------------|


Chorus:

e|-----------------------|--------------------------------|
B|-----------------------|--------------------------------|
G|-----------------------|----------------o/--------------|
D|--7-7-7-7-12-12-11-11--|--------------4-/o--------------|
A|--5-5-5-5-10-10-9--9---|--------------------------------|
E|-----------------------|--------------------------------|
                         (REPEAT PREVIOUS MEASURE 4 TIMES)

e|-------------------------------------------|
B|-------------------------------------------|
G|--------------9-9-9-9-------------9-9-9-9--|
D|--10-10-10-10-9-9-9-9-10-10-10-10-9-9-9-9--|
A|--10-10-10-10-7-7-7-7-10-10-10-10-7-7-7-7--|
E|--8--8--8--8----------8--8--8--8-----------|

Solo:

Just walk up the A minor pentatonic and mess around there, here's how he starts.

e|------------------5--------5---5-----|
B|------------------5--------5---5-----|
G|--------------5-7-7b9------7b9-7b9---|
D|----------5-7------------------------|
A|------5-7----------------------------|
E|--5-8--------------------------------|    etc.


Play chorus a few times and end on:

e|--------------------------||
B|--------------------------||
G|--7~~~~~~~~~~~~~~~~~~~~~--||
D|--7~~~~~~~~~~~~~~~~~~~~~--||
A|--5~~~~~~~~~~~~~~~~~~~~~--||
E|--------------------------|}


Enjoy!
Suggest correction
What's this?
You can suggest a correction to this tab. Community and Mods will review your correction and vote to approve or reject it.
comments
We did not receive enough feedback on this tab! Please rate:
print report bad tab
1 2 3 4 5
guest
You may want to rate the tab now too:
select rating
Please do not post tabs as comments. Select "correction" instead!