Oops, an error
Loading. Please wait.

Raindrops Keep Fallin On My Head Tab

version 1
version 1

Whole song

Interactive

208 views 1 this week
no commentswrite comment
1 2 3 4 5
please rate
add to favorites
launch autoscroll
font size
0
reset
how to read this tab
guitar tuner
Tab Pro tools
  • play this tab
  • loop segment
  • change instrument
  • show fretboard
  • metronome
×
Best way to learn
"Raindrops Keep Fallin On My Head"
Autoscroll
slow
fast
+/-
esc
set tempo
stop
Contributor
Difficulty
advanced
                      Raindrops Keep Fallin' On My Head                         


                                                                     Jim Bachman
Untitled



       E   E   E   E  E   Q    E     E  E  E  E  E  Q    E   
E||---------------12-----10-------|-----------8-----7-------|
B||-----------10----------8-------|--------6--------5-------|
G||-------------------------------|-----------------0-------|
D||-------10--------------9-------|-----7-------------------|
A||--3g8--------------7--------5--|--L-----------3-------0--|
E||-------------------------------|-------------------------|


  E  E  E  E  Q    Q       Q    E  E  E  E  Q         Q    E  E  E  E  E  E   
-----------3-------0----|------------------------||---0----0--0--1--0--------|
--------1---------------|-------1-----1-----3----||---1----1--1--1-----3--1--|
-------------------2----|-------2-----2-----4----||*--0----0--0--0-----------|
-----2------------------|-------3-----3-----3----||*-------------------------|
--L----------------3----|------------------------||---3----------3-----------|
--------------1---------|--3-------3-----3-------||--------------------------|


  Q    E  E  E  E  E  E     Q    E  E  E  E  E  E     E  E  E  E  E  E  Q     
--0----------------------|--3----3--3--5--3--------|--0-----1----------------|
--0----0--0--------0-----|--3----3--3--5-----6--5--|--------------3-----1----|
--0----0--0-----------0--|--3----3--3--3-----------|-----2-----2-----2-------|
----------------2--------|-------------------------|-------------------------|
--3----------3-----------|--3----------3-----------|-------------------------|
-------------------------|-------------------------|--1--L--------1--L-------|


  Q    Q    E  E  E  E     Q    E  E  E  E  Q       E  E  E  E  E  E  E  E   
--7---------5-----0-----|--7-------5--L----------|--3-----3--0--1--3--1--0--|
--8------------8-----0--|--8-------7--L--6--5----|-----1--L-----1-----1-----|
--7---------6-----------|--7-------6--L--6--L----|-----2--L-----2-----2-----|
------------5-----------|----------5--L--5--L----|--0-----------0-----0-----|
------------0-----------|-------0-----L----------|--------------------------|
--0----7----------------|--0---------------------|--------------------------|


  E  E  E  E  E  E  Q       Q    E  E  E  E  Q         E  E  E  E  Q    E  E   
--3-----3--0--1--3-------|-------------------------||--0----------------3-----|
-----1--L-----1--L-------|-------1-----1-----3-----||-------------------1--3--|
-----2--L-----2--L-------|-------2-----2-----4----*||--------0----------0-----|
--0-----------0-----0----|-------3-----3-----3----*||-----2-------------------|
-------------------------|-------------------------||--3--------3-------------|
-------------------------|--3-------3-----3--------||--------------3----------|


  E  E  E  E  Q    E  E     Q    E  E  E  E  E  E     E  E  E  E  E  E  E   E   
----------------------1--|--L----0--------------0--|--L-----------0------------|
--L----------------5--1--|--L-------3--L-----1-----|-----3--------------6--10--|
--------4----------3--2--|--L----2--L--L--2--------|-----4-----4-----4--L------|
-----2-----2-------2-----|-------------3-----------|--------5--L---------------|
-------------------------|-------------------------|---------------------------|
--3-----------3----2-----|--1----------------------|--3-----------3------------|


   E  E  E  E  E  E  E  E     E  E  E  E  E  E  E  E     E  Q    E  Q    E  E   
------------------------0--|--5--3-----3--L--------0--|--7--5------------0-----|
---L--8--------L-----L-----|--3--3-----3--L-----3-----|-----5----8--L-------3--|
------------7--------7-----|--4--4-----4--L-----4-----|-----6----6--L----6-----|
------9--L--L-----9--L-----|-----------------5--L-----|-----5------------5-----|
---------------------------|--------------------------|--0--L----7--L----0-----|
---0--L--------0--L--L-----|--0-----------0--L--L-----|------------------------|


  E  E  E  E  E  Q    E     E  E  E  E  E  E  E  E     E  E  E  E  E  E  E  E   
-------------------------|--------------------------|--------------------------|
--L--------5--L--3-------|--------1--3--L-----------|--------1--3--L-----------|
--------5--------5-------|--------2--4--L-----------|--------2--4--L-----------|
-----3--L--------3-------|-----0--3--5--L--0--0--0--|-----0--3--5--L--0--0--0--|
--5--L--L-----5-------5--|--------------------------|--------------------------|
-------------------------|--3-----------------------|--3-----------------------|


  Q    E  E  E  E  E  E     Q    Q    E  E  S  S S S    Q    E  E  E  E  E  E   
--0----------------------|------------5--3-----------|--0----------------------|
-------0--0--------1-----|-------1----------1----3---|-------0--0--------1-----|
-------0--0--------2-----|-------2----5--4--2p-0-----|-------0--0--------2-----|
-------2--2-----2-----2--|-------3---------------3---|-------2--2-----2-----2--|
--3----------------------|---------------------------|--3----------------------|
-------------1-----------|--3----------------------3-|-------------1-----------|


  Q    E  E  E  E  E  E     Q    E  E  E  E  E  E   
--0----------------------|--0----------------------|
-------0--0--------1-----|-------0--0--------1-----|
-------0--0--------2-----|-------0--0--------2-----|
-------2--2-----2-----2--|-------2--2-----2-----2--|
--3----------------------|--3----------------------|
-------------1-----------|-------------1-----------|


  E   E   E   E  E   Q    E     E  E  E  E  E  Q    E   
-------------12-----10-------|-----------8-----7-------|
---------10----------8-------|--------6--------5-------|
-----------------------------|-----------------0-------|
-----10--------------9-------|-----7-------------------|
--8--------------7--------5--|--L-----------3-------0--|
-----------------------------|-------------------------|


                                                  ^                  
  E  E  E  E  Q    Q       Q    Q    Q    Q       W                  
-----------3-------0----|----------------------|--0----------------||
--------1---------------|-------1----1----3----|--0----------------||
-------------------2----|-------2----2----4----|--0----------------||
-----2------------------|-------3----3----3----|--2----------------||
--L----------------3----|-----------------5----|--3----------------||
--------------1---------|--3---------3----3----|--3----------------||




Duration Legend
---------------
W - whole
H - half
Q - quarter
E - 8th
S - 16th
T - 32nd
X - 64th
. - note dotted
|-n-|  - n-tuplets


Tablature Legend
----------------
L - tied note
x - dead note
g - grace note
(n) - ghost note
> - accentuded note
NH - natural harmonic
AH - artificial harmonic
TH - tapped harmonic
SH - semi harmonic
PH - pitch harmonic
h - hammer on
p - pull off
b - bend
br - bendRelease
pb - preBend
pbr - preBendRelease
brb - bendReleaseBend
\n/ - tremolo bar dip
\n - tremolo bar dive
-/n - tremolo bar Release up
/n\ - tremolo bar inverted dip
/n - tremolo bar return
-\n - tremolo bar Release down
S - shift slide
s - legato slide
/ -  slide into from below or out of upwards
\ -  slide into from above or out of downwards
~ - vibrato
W - wide vibrato
tr - trill
TP - tremolo picking
T - tapping
S - slap
P - pop
< - fade in
^ - brush up
v - brush down
comments
We did not receive enough feedback on this tab! Please rate:
print report bad tab
1 2 3 4 5
I want to post or [tab]
guest
You may want to rate the tab now too:
select rating
Please do not post tabs as comments. Select "correction" instead!