Oops, an error
Loading. Please wait.

I Got A Name Bass Tab

version 1
version 1

Whole song

Interactive

34 views 6 this week
no commentswrite comment
1 2 3 4 5
2 more votes to show rating
add to favorites
launch autoscroll
font size
0
reset
guitar tuner
Autoscroll
slow
fast
+/-
esc
set tempo
stop
Help us to improve Ultimate-Guitar.com Take our survey!
×
Author
Difficulty
novice
[Intro]
G|----------------|----------------|----------------|----------------|
D|0---------------|----------------|0---------------|----------------|
A|----------------|----------------|----------------|----------------|
E|--------0-------|2-------2-------|--------0-------|2-------2-------|

[Verse]
G|----------------|----------------|----------------|----------------|
D|2-----------2---|1-----------1---|----------------|----------------|
A|----------------|----------------|4-----------4---|4-----------4---|
E|----------------|----------------|----------------|----------------|

G|----------------|----------------|----------------|----------------|
D|----------------|----------------|2-----------2---|2-----------2---|
A|0-----------0---|2-----------2---|----------------|----------------|
E|----------------|----------------|----------------|----------------|

G|----------------|----------------|----------------|----------------|
D|2-----------2---|----------------|----------------|----------------|
A|----------------|2-----------2---|4-----------4---|4-----------4---|
E|----------------|----------------|----------------|----------------|

G|----------------|----------------|----------------|----------------|
D|----------------|----------------|----------------|----------------|
A|----------------|----------------|2-----------2---|2-----------2---|
E|2-----------2---|2-----------2---|----------------|----------------|

G|----------------|----------------|----------------|----------------|
D|----------------|----------------|----------------|----------------|
A|----------------|0-----------0---|----------------|----------------|
E|4-----------4---|----------------|0-----------0---|4-----------4---|

G|----------------|----------------|----------------|----------------|
D|----------------|----------------|----------------|----------------|
A|4-----------4---|----------------|2-----------2---|2-------2---2---|
E|----------------|2-----------2---|----------------|----------------|

[Chorus]
G|----------------|----------------|----------------|----------------|
D|----------------|----------------|----------------|----------------|
A|----------------|0-----------0---|----------------|4-----------4---|
E|4-----------4---|----------------|4-----------4---|----------------|

G|----------------|----------------|----------------|----------------|
D|----------------|----------------|----------------|----------------|
A|0-----------0---|2-------2-------|2---2---2-2-2---|0---0---0-0-0---|
E|----------------|----------------|----------------|----------------|

G|----------------|----------------|
D|----------------|----------------|
A|----------------|0---0---0-0-0---|
E|0---0---0-0-0---|----------------|

[Verse]
G|----------------|----------------|----------------|----------------|
D|2-----------2---|1-----------1---|----------------|----------------|
A|----------------|----------------|4-----------4---|4-----------4---|
E|----------------|----------------|----------------|----------------|

G|----------------|----------------|----------------|----------------|
D|----------------|----------------|2-----------2---|2-----------2---|
A|0-----------0---|2-----------2---|----------------|----------------|
E|----------------|----------------|----------------|----------------|

G|----------------|----------------|----------------|----------------|
D|2-----------2---|----------------|----------------|----------------|
A|----------------|2-----------2---|4-----------4---|4-----------4---|
E|----------------|----------------|----------------|----------------|

G|----------------|----------------|----------------|----------------|
D|----------------|----------------|----------------|----------------|
A|----------------|----------------|2-----------2---|2-----------2---|
E|2-----------2---|2-----------2---|----------------|----------------|

G|----------------|----------------|----------------|----------------|
D|----------------|----------------|----------------|----------------|
A|----------------|0-----------0---|----------------|----------------|
E|4-----------4---|----------------|0-----------0---|4-----------4---|

G|----------------|----------------|----------------|----------------|
D|----------------|----------------|----------------|----------------|
A|4-----------4---|----------------|2-----------2---|2-------2---2---|
E|----------------|2-----------2---|----------------|----------------|

[Chorus]
G|----------------|----------------|----------------|----------------|
D|----------------|----------------|----------------|----------------|
A|----------------|0-----------0---|----------------|4-----------4---|
E|4-----------4---|----------------|4-----------4---|----------------|

G|----------------|----------------|----------------|----------------|
D|----------------|----------------|----------------|----------------|
A|0-----------0---|2-------2-------|2---2---2-2-2---|0---0---0-0-0---|
E|----------------|----------------|----------------|----------------|

[Bridge]
G|----------------|----------------|----------------|----------------|
D|2-----------2---|1-----------1---|----------------|----------------|
A|----------------|----------------|4-----------4---|4-----------4---|
E|----------------|----------------|----------------|----------------|

G|----------------|----------------|----------------|----------------|
D|----------------|----------------|2-----------2---|2-----------2---|
A|0-----------0---|2-----------2---|----------------|----------------|
E|----------------|----------------|----------------|----------------|

G|----------------|----------------|----------------|----------------|
D|2-----------2---|----------------|----------------|----------------|
A|----------------|2-----------2---|4-----------4---|4-----------4---|
E|----------------|----------------|----------------|----------------|

G|----------------|----------------|----------------|----------------|
D|----------------|----------------|----------------|----------------|
A|----------------|----------------|2-----------2---|2-----------2---|
E|2-----------2---|2-----------2---|----------------|----------------|

G|----------------|----------------|----------------|----------------|
D|2---------------|2---------------|2---------------|2-----------2---|
A|----------------|----------------|----------------|----------------|
E|----------------|----------------|----------------|----------------|

[Verse]
G|----------------|----------------|----------------|----------------|
D|2-----------2---|1-----------1---|----------------|----------------|
A|----------------|----------------|4-----------4---|4-----------4---|
E|----------------|----------------|----------------|----------------|

G|----------------|----------------|----------------|----------------|
D|----------------|----------------|2-----------2---|2-----------2---|
A|0-----------0---|2-----------2---|----------------|----------------|
E|----------------|----------------|----------------|----------------|

G|----------------|----------------|----------------|----------------|
D|2-----------2---|----------------|----------------|----------------|
A|----------------|2-----------2---|4-----------4---|4-----------4---|
E|----------------|----------------|----------------|----------------|

G|----------------|----------------|----------------|----------------|
D|----------------|----------------|----------------|----------------|
A|----------------|----------------|2-----------2---|2-----------2---|
E|2-----------2---|2-----------2---|----------------|----------------|

G|----------------|----------------|----------------|----------------|
D|----------------|----------------|----------------|----------------|
A|----------------|0-----------0---|----------------|----------------|
E|4-----------4---|----------------|0-----------0---|4-----------4---|

G|----------------|----------------|----------------|----------------|
D|----------------|----------------|----------------|----------------|
A|4-----------4---|----------------|2-----------2---|2-------2---2---|
E|----------------|2-----------2---|----------------|----------------|

[Chorus]
G|----------------|----------------|----------------|----------------|
D|----------------|----------------|----------------|----------------|
A|----------------|0-----------0---|----------------|4-----------4---|
E|4-----------4---|----------------|4-----------4---|----------------|

G|----------------|----------------|----------------|----------------|
D|----------------|----------------|----------------|----------------|
A|0-----------0---|2-------2-------|2---2---2-2-2---|0---0---0-0-0---|
E|----------------|----------------|----------------|----------------|

[Outro]
G|----------------|----------------|----------------|----------------|
D|----------------|----------------|----------------|----------------|
A|----------------|0-----------0---|----------------|4-----------4---|
E|4-----------4---|----------------|4-----------4---|----------------|

G|----------------|----------------|----------------|----------------|
D|----------------|----------------|----------------|0---0---0-0-0---|
A|0---------------|2---------------|----------------|----------------|
E|----------------|----------------|----------------|----------------|

G|----------------|----------------|----------------|----------------|
D|----------------|0---0---0-0-0---|0---0---0-0-0---|----------------|
A|2---2---2-2-2---|----------------|----------------|0---0---0-0-0---|
E|----------------|----------------|----------------|----------------|

G|----------------|
D|2---------------|
A|----------------|
E|----------------|
Suggest correction
Give kudos to tab author, rate the tab!
1 2 3 4 5
comments
print report bad tab
guest
You may want to rate the tab now too:
select rating
Wanna post a correction for this tab? Suggest correction