Oops, an error
Loading. Please wait.

I Got A Name Tab

version 2
version 2

Whole song

Interactive

47,905 views 75 this week
2 commentsread comments
1 2 3 4 5
excellent!
x 9
add to favorites
launch autoscroll
font size
0
reset
how to read this tab
guitar tuner
Tab Pro tools
  • play this tab
  • loop segment
  • change instrument
  • show fretboard
  • metronome
×
Best way to learn
"I Got A Name"
Autoscroll
slow
fast
+/-
esc
set tempo
stop
Contributor
#----------------------------------PLEASE NOTE---------------------------------#
#This file is the author's own work and represents their interpretation of the #
#song. You may only use this file for private study, scholarship, or research. #
#------------------------------------------------------------------------------#

Date: 15.08.2005
Tabbed by Peter Tuyp(peter.tuyp@wxs.nl)

subject: Jim Croce - I got a name


Chords:
C	x32010
G/b	x20033
Am 	x02210
Am/g	302210
D7/f#	200212
G	320003
G6sus4	332010
Em 	022000
F	133211
A7	x02020
C5/bes	x12010
C5/a	x02010
C5/g	3x2010
C5/f	1xx010


Capo on 4


Intro:
Gtr1
  C         
|-------------------------------------------------------------------|
|-1-------1-------1-------1-------1-------1-------1-------1---------|
|---0---0---0---0---0---0---0---0---0---0---0---0---0---0---0---0---|
|-----2-------0-------2-------0-------2-------0-------2-------0-----|
|-3-------3-------3-------3-------3-------3-------3-------3---------|
|-------------------------------------------------------------------|

Gtr2
|-------------------------------------------------------------------|
|-1-------3-------3h5-----5p3-----3h5-----3-------3h5-----5p3-------|
|-----0---------------0-------0-------0-----0---0-----0-------0-----|
|---------0---3---------2-------0-------2-----2---------2-------2---|
|-3-----3-------3-3-------3-------3-------3-------3-------3---------|
|-------------------------------------------------------------------|


Verse 1:
Gtr1
  C               G/b             Am              Am/g
|-------------------------------------------------------------------|
|-1-------1-------3-------3-------1-------1-------1-------1---------|
|---0---0---0---0---0---0---0---0---2---2---2---2---2---2---2---2---|
|-----2-------2-------0-------0-------2-------2-------2-------2-----|
|-3---------------2---------------0---------------------------------|
|-------------------------------------------------3-----------------|
      Like the pine trees 
                  lining the winding
                                  road,             I've got a
Gtr2
|-------------0-----3-------3---------------------------------------|
|-3h5---5---1---1-3-----3-------3-1---------------------------------|
|-----0---0-----------0-------0-------------------------------------|
|-------------------------0-----------------------------------------|
|-3---------------2---------------0---------------------------------|
|-------------------------------------------------------------------|
 

Gtr1
  F               G               C
|-------------------------------------------------------------------|
|-----------------0-------0-------1-------3-------1-----1-1-----1---|
|-2-------2---------0---0---0---0---0---0---0---0-----0-------0-----|
|---3---3---3---3-----0-------0-------2-------3---0h2-----2p0-------|
|-----3-------3-------------------3-------3-------------------------|
|-1---------------3-------------------------------------------------|
  name              I've got a    name
Gtr2
|---------------------------------------------------------0-----------|
|---------------------------------1-----1-3-----1-3h5---1---3---1-3h5-|
|-----------------------------------0-------0-------------------------|
|-------------------------------------2---3---3-----------------------|
|---------------------------------3---------------3---3-------3---3---|
|---------------------------------------------------------------------|


Gtr1
  C               G/b             Am              Am/g
|-------------------------------------------------------------------|
|-1-------1-------3-------3-------1-------1-------1-------1---------|
|---0---0---0---0---0---0---0---0---2---2---2---2---2---2---2---2---|
|-----2-------2-------0-------0-------2-------2-------2-------2-----|
|-3---------------2---------------0---------------------------------|
|-------------------------------------------------3-----------------|
      Like the singing 
                  bird and the croaking
                                  toad              I've got a

Gtr1
  D7/f#                         G                     G6sus4
                                                          G/b
|-------------------------------------------------------------------|
|---------1-----3---1-------3---0-------0-------0-----1---3---------|
|-2---2-----2-----------2---------0---0---0---0---0---------0-------|
|---0---0-----0---0---0---0---0-----0-------0-------0---2-----------|
|-------------------------------------------------------------------|
|-2-----------------------------3-------3-------3-------------------|
  name                I've got a name
Gtr2
|-------------------------------------------------------------------|
|-------------------------------0-------0-------0-----1---3---------|
|---------------------------------0---0---0---0---0---------0-------|
|-----------------------------------0-------0-------0---2-----------|
|-------------------------------------------------------------------|
|-------------------------------3-------3-------3-------------------|

 
Gtr1
  Em              F               C               E
|-------------------------------------------------------------------|
|-0---------0-----1---------1-----1-------0h1-----0---------0-------|
|---0---0-------0---2---2-------2---0---0-----0-----1---1-------1---|
|-----2-------2-------3-------3-------2---------------2-------2-----|
|---------2---------------3-------3-------------3---------2---------|
|-0---------------1-------------------------------0-----------------|
      And I carry it 
                  with me like my daddy did,  but I'm living the 
  
Gtr1
  Am              Am/g            G                     G6sus4
                                                            G/b
|-------------------------------------------------------------------|
|-1---------1-----1---------1-----0-------0-------0-----1---3-------|
|---2---2-------2---2---2-------2---0---0---0---0---0-----0---0-----|
|-----2-------2-------3-------2-------0-------0-------0-2-----------|
|-0-------0---------------------------------------------------------|
|-----------------3-------3-------3-------3-------3-----------------|
  dreams            that he kept  hid
            

Chorus:
Gtr1
  Em                F         Em                A7
|-0-0---0-0---0-0---1---1-1---0-0---0-0---0-0---0---0-0------|
|-0-0---0-0---0-0---1---1-1---0-0---0-0---0-0---2---2-0h2----|
|-0-0---0-0---0-0---2---2-2---0-0---0-0---0-0---0---0-0------|
|-2-2---2-2---2-2---3---3-3---2-2---2-2---2-2---2---2-2------|
|-2-2---2-2---2-2---3---3-3---2-2---2-2---2-2---0---0-0------|
|-0-0---0-0---0-0---1---1-1---0-0---0-0---0-0----------------|
  Moving me down the high-
                    way.      Moving me down the high-
                                                way.   
Gtr1
  F             G                C5/bes C5/a  C5/g  C5/f         C5/bes C5/a  C5/G  C5/f
|-1-1---1-1---1-3---3---3-3---3---0-0-0-0-0-0-0-0-0-0-0-0-0-0-0-0-0-0-0-0-0-0-0-0-0-0-0-0-0-0-0-|
|-1-1---1-1---1-0---0---0-0---0---1-1-1-1-1-1-1-1-1-1-1-1-1-1-1-1-1-1-1-1-1-1-1-1-1-1-1-1-1-1-1-|
|-2-2---2-2---2-0---0---0-0---0---0-0-0-0-0-0-0-0-0-0-0-0-0-0-0-0-0-0-0-0-0-0-0-0-0-0-0-0-0-0-0-|
|-3-3---3-3---3-0---0---0-0---0---2-2-2-2-2-2-2-2-2-2-2-2-2-2-2-2-2-2-2-2-2-2-2-2-2-2-2-2-2-2-2-|
|-3-3---3-3---3-2---2---2-2---2---1-----0-------------------------1-----0-----------------------|
|-1-1---1-1---1-3---3---3-3---3---------------3-----1-----0h1-3---------------3-----1-----0h1-3-|
  Moving ahead so 
               life won't pass me by
Gtr2
|-----------------------------------------------------------------------------------------------|
|---------------------------------1-----1-----1-----1-------------1-----1-----1-----1-----------|
|---------------------------------0-----0-----0-----0-------------0-----0-----0-----0-----------|
|-----------------------------------------------------------------------------------------------|
|---------------------------------1-----0-------------------------1-----0-----------------------|
|---------------------------------------------3-----1-----0h1-3---------------3-----1-----0h1-3-|


Verse 2:
Gtr1
C                   G/b               Am  Am/g 
Like the north wind wistling down the sky,   I've got a 
Gtr2
|------------------3-------3----------------------------------------|
|--------3h5---5-3-----3-------3-1----------------------------------|
|------------0-------0-------0--------------------------------------|
|------------------------0------------------------------------------|
|--------3-------2---------------0----------------------------------|
|-------------------------------------------------------------------|

 
Gtr1
F     G          C
song, I've got a song 
Gtr2
|---------------------------------------------------------0-----------|
|---------------------------------1-----1-3-----1-3h5---1---3---1-3h5-|
|-----------------------------------0-------0-------------------------|
|-------------------------------------2---3---3-----------------------|
|---------------------------------3---------------3---3-------3---3---|
|---------------------------------------------------------------------|


Gtr1
C                G/b                 Am   Am/g  
Like the whippoorwill and the baby's cry,   I've got a


Gtr1
D7/f#            G
song, I've got a song
Gtr2
|-------------------------------------------------------------------|
|-------------------------------0-------0-------0-----1---3---------|
|---------------------------------0---0---0---0---0---------0-------|
|-----------------------------------0-------0-------0---2-----------|
|-------------------------------------------------------------------|
|-------------------------------3-------3-------3-------------------|


Gtr1
Em             F             C             E 
And I carry it with me and I sing it loud,   if it gets me 


Gtr1
Am       Am/g                   G                     G6sus4  
                                                          G/b
nohwere,          I'll go there proud
Gtr2
|-------------------------------------------------------------------|
|-------------------------------0-------0-------0-----1---3---------|
|---------------------------------0---0---0---0---0---------0-------|
|-----------------------------------0-------0-------0---2-----------|
|-------------------------------------------------------------------|
|-------------------------------3-------3-------3-------------------|


Chorus:
Gtr1
  Em                F         Em                A7
|-0-0---0-0---0-0---1---1-1---0-0---0-0---0-0---0---0-0------|
|-0-0---0-0---0-0---1---1-1---0-0---0-0---0-0---2---2-0h2----|
|-0-0---0-0---0-0---2---2-2---0-0---0-0---0-0---0---0-0------|
|-2-2---2-2---2-2---3---3-3---2-2---2-2---2-2---2---2-2------|
|-2-2---2-2---2-2---3---3-3---2-2---2-2---2-2---0---0-0------|
|-0-0---0-0---0-0---1---1-1---0-0---0-0---0-0----------------|
  Moving me down the high-
                    way.      Moving me down the high-
                                                way.
        
Gtr1
  F             G                C5/bes C5/a  C5/g  C5/f         
|-1-1---1-1---1-3---3---3-3---3---0-0-0-0-0-0-0-0-0-0-0-0-0-0-0-|
|-1-1---1-1---1-0---0---0-0---0---1-1-1-1-1-1-1-1-1-1-1-1-1-1-1-|
|-2-2---2-2---2-0---0---0-0---0---0-0-0-0-0-0-0-0-0-0-0-0-0-0-0-|
|-3-3---3-3---3-0---0---0-0---0---2-2-2-2-2-2-2-2-2-2-2-2-2-2-2-|
|-3-3---3-3---3-2---2---2-2---2---1-----0-----------------------|
|-1-1---1-1---1-3---3---3-3---3---------------3-----1-----0h1-3-|
  Moving ahead so 
               life won't pass me by
Gtr2
|---------------------------------------------------------------|
|---------------------------------1-----1-----1-----1-----------|
|---------------------------------0-----0-----0-----0-----------|
|---------------------------------------------------------------|
|---------------------------------1-----0-----------------------|
|---------------------------------------------3-----1-----0h1-3-|


Solo:
  C        G/b          Am  Am/g      F   G         C
|----------------------------------------------------------------------------------|
|-5-5-5-6--8b10r8-6b8r6-5---4b5-3-1---1---3b5r3-1-3---------3---------1h3-1-3/5-5--|
|-----------------------------------2---------------0---------0h2-0-2--------------|
|-------------------------------------------------------0h2------------------------|
|----------------------------------------------------------------------------------|
|----------------------------------------------------------------------------------|

       G/b        Am   Am/g      D        G                  G6sus4 G/b C
|------------------------5--------------------3-------------------------0----|
|-5-6--8b10r8-5-8-8b10-----5r3-1-3---1--1-------0-1---1-0-----1-----3---1----|
|-----------------------------------------2h4-------0-----0-----0-------0----|
|-----------------------------------------------------------0-----2-----2----|
|-----------------------------------------------------------------------3----|
|----------------------------------------------------------------------------|

And I'm gonna go there free

Gtr2
|-------------------------------------------------------------------|
|-0-1-3-1-3/5-------------------------------------------------------|
|-------------------------------------------------------------------|
|-------------------------------------------------------------------|
|-------------------------------------------------------------------|
|-------------------------------------------------------------------|


Verse 3:
Gtr1
C               G/b                Am  Am/g
Like the fool I am and I'll always be,   I've got a


Gtr1
F      G           C
dream,  I've got a dream
Gtr2
|---------------------------------------------------------0-----------|
|---------------------------------1-----1-3-----1-3h5---1---3---1-3h5-|
|-----------------------------------0-------0-------------------------|
|-------------------------------------2---3---3-----------------------|
|---------------------------------3---------------3---3-------3---3---|
|---------------------------------------------------------------------|


Gtr1
C                     G/b                         Am  Am/g  
They can change their minds but they can't change me,   I've got a 


Gtr1
D7/f#                           G                     G6sus4
                                                          G/b
dream,    I've got a            dream
Gtr2 
|-------------------------------------------------------------------|
|-------------------------------0-------0-------0-----1---3---------|
|---------------------------------0---0---0---0---0---------0-------|
|-----------------------------------0-------0-------0---2-----------|
|-------------------------------------------------------------------|
|-------------------------------3-------3-------3-------------------|


Gtr1
Em             F                C          E
I know I could share it, if you want me to,  If you're going my


Gtr1
Am    Am/g                      G                     G6sus4 
                                                          G/b
way,       I'll go with         you
Gtr2
|-------------------------------------------------------------------|
|-------------------------------0-------0-------0-----1---3---------|
|---------------------------------0---0---0---0---0---------0-------|
|-----------------------------------0-------0-------0---2-----------|
|-------------------------------------------------------------------|
|-------------------------------3-------3-------3-------------------|



Chorus:
Gtr1
  Em                F         Em                A7
|-0-0---0-0---0-0---1---1-1---0-0---0-0---0-0---0---0-0------|
|-0-0---0-0---0-0---1---1-1---0-0---0-0---0-0---2---2-0h2----|
|-0-0---0-0---0-0---2---2-2---0-0---0-0---0-0---0---0-0------|
|-2-2---2-2---2-2---3---3-3---2-2---2-2---2-2---2---2-2------|
|-2-2---2-2---2-2---3---3-3---2-2---2-2---2-2---0---0-0------|
|-0-0---0-0---0-0---1---1-1---0-0---0-0---0-0----------------|
  Moving me down the high-
                    way.      Moving me down the high-
                                                way.
        
Gtr1
  F             G                C5/bes C5/a  C5/g  C5/f         
|-1-1---1-1---1-3---3---3-3---3---0-0-0-0-0-0-0-0-0-0-0-0-0-0-0-|
|-1-1---1-1---1-0---0---0-0---0---1-1-1-1-1-1-1-1-1-1-1-1-1-1-1-|
|-2-2---2-2---2-0---0---0-0---0---0-0-0-0-0-0-0-0-0-0-0-0-0-0-0-|
|-3-3---3-3---3-0---0---0-0---0---2-2-2-2-2-2-2-2-2-2-2-2-2-2-2-|
|-3-3---3-3---3-2---2---2-2---2---1-----0-----------------------|
|-1-1---1-1---1-3---3---3-3---3---------------3-----1-----0h1-3-|
  Moving ahead so 
               life won't pass me by
Gtr2
|---------------------------------------------------------------|
|---------------------------------1-----1-----1-----1-----------|
|---------------------------------0-----0-----0-----0-----------|
|---------------------------------------------------------------|
|---------------------------------1-----0-----------------------|
|---------------------------------------------3-----1-----0h1-3-|


Gtr1
  Em                F         Em                A7
|-0-0---0-0---0-0---1---1-1---0-0---0-0---0-0---0---0-0------|
|-0-0---0-0---0-0---1---1-1---0-0---0-0---0-0---2---2-0h2----|
|-0-0---0-0---0-0---2---2-2---0-0---0-0---0-0---0---0-0------|
|-2-2---2-2---2-2---3---3-3---2-2---2-2---2-2---2---2-2------|
|-2-2---2-2---2-2---3---3-3---2-2---2-2---2-2---0---0-0------|
|-0-0---0-0---0-0---1---1-1---0-0---0-0---0-0----------------|
  Moving me down the high-
                    way.      Moving me down the high-
                                                way.
        
Gtr1
  F             G                C5/bes C5/a  C5/g  C5/f         C5/bes C5/a  C5/G  C5/f
|-1-1---1-1---1-3---3---3-3---3---0-0-0-0-0-0-0-0-0-0-0-0-0-0-0-0-0-0-0-0-0-0-0-0-0-0-0-0-0-0-0-0-|
|-1-1---1-1---1-0---0---0-0---0---1-1-1-1-1-1-1-1-1-1-1-1-1-1-1-1-1-1-1-1-1-1-1-1-1-1-1-1-1-1-1-1-|
|-2-2---2-2---2-0---0---0-0---0---0-0-0-0-0-0-0-0-0-0-0-0-0-0-0-0-0-0-0-0-0-0-0-0-0-0-0-0-0-0-0-0-|
|-3-3---3-3---3-0---0---0-0---0---2-2-2-2-2-2-2-2-2-2-2-2-2-2-2-2-2-2-2-2-2-2-2-2-2-2-2-2-2-2-2-2-|
|-3-3---3-3---3-2---2---2-2---2---1-----0-------------------------1-----0-----------------------3-|
|-1-1---1-1---1-3---3---3-3---3---------------3-----1-----0h1-3---------------3-----1-----0h1-3---|
  Moving ahead so 
               life won't pass me by
Gtr2
|-----------------------------------------------------------------------------------------------0-|
|---------------------------------1-----1-----1-----1-------------1-----1-----1-----1-----------1-|
|---------------------------------0-----0-----0-----0-------------0-----0-----0-----0-----------0-|
|-----------------------------------------------------------------------------------------------2-|
|---------------------------------1-----0-------------------------1-----0-----------------------3-|
|---------------------------------------------3-----1-----0h1-3---------------3-----1-----0h1-3---|
comments
print report bad tab
2 comments total.
+2 reply
Greytimothy wrote on February 28 2006, 03:11 pm

Very nice job .... really. Thanks

0 reply
whrsdaparty420 wrote on November 13 2014, 06:06 pm

@Greytimothy- Agree

I want to post or [tab]
guest
You may want to rate the tab now too:
select rating
Please do not post tabs as comments. Select "correction" instead!