Oops, an error
Loading. Please wait.

I Got A Name Tab

version 2
version 2

Whole song

Interactive

17,001 views 24 this week
no commentswrite comment
1 2 3 4 5
1 last vote to show rating
add to favorites
launch autoscroll
font size
0
reset
how to read this tab
guitar tuner
×
Best way to learn
"I Got A Name"
Autoscroll
slow
fast
+/-
esc
set tempo
stop
Author
Difficulty
Capo
  follow
intermediate
4th fret
Capo 4

[Intro]
e|--------------------------------------------------------------|
B|--------------------------------------------------------------|
G|--------------------------------------------------------------|
D|--------------------------------------------------------------|
A|-----0-0--0h2--2-2p0------------------------------------------|
E|-3-3----------------------------------------------------------| (x4)

[Riff 1]
e|--------------------------------------------------------|
B|--------------------------------------------------------|
G|--------------------------------------------------------|
D|--------------------------------------------------------|
A|--1-1-0-0------------------------1-1-0-0----------------|
E|----------3-3-1-1-0h1-3------------------3-3-1-1-0h1-3--|

 A7 H-P-O
e|--0--0--0----|
B|--2--0h-2----|
G|--0--0--0----|
D|--2--2--2----|
A|-------------|
E|-------------|

C                     G                Am                           
Like the pine trees linin' the windin' road,      
            F         G       C
I've got a name, I've got a name
C                 G                 Am                   
Like the singin' bird and the croakin' toad, 
          D7/F               G
I've got a name, I've got a name
Em             F                C                
And I carry it with me like my daddy did, 
 E               Am                   G
But I'm livin' the dream that he kept hid
Em                   F             
Movin' me down the highway,
Em                   A h=p=o 
Rollin' me down the highway   
F                G              Riff 1 
Movin' ahead so life won't pass me by
C                 G                  Am                    
Like the north wind whistlin' down the sky, 
          F     G            C
I've got a song, I've got a song
C                G                    Am                   
Like the whippoorwill and the baby's cry, 
          D7/F              G
I've got a song, I've got a song
Em           F              C                  
And I carry it with me and I sing it loud, 
E              Am                       G
If it gets me nowhere, I'll go there proud
Em                 F             
Movin' me down the highway, 
Em                  A7h=p=o
Rollin' me down the highway
F                G               Riff 1
Movin' ahead so life won't pass me by

 C          G                Am                    F        G   C
e|---------------------------------------------------------------------------|
B|-5-5-5-6-8-8/10-8-6-5------4h5-3-1-1-------3h5-3-1-3-----------------------|
G|----------------------------------2------------------0---------------------|
D|---------------------------------------------------------------------------|
A|---------------------------------------------------------------------------|
E|---------------------------------------------------------------------------|

   C              G               Am      D       G
e|-----------------------------5---------------------------------------------|
B|------------1-1-1h3-3/5-6/10---5-3-5-3-1-0---------------------------------|
G|----0h2-0-2---------------------------------2/4----------------------------|
D|-0h2-----------------------------------------------------------------------|
A|---------------------------------------------------------------------------|
E|---------------------------------------------------------------------------|

C           
And I'm gonna go there free
C               G                  Am     
Like the fool I am and I'll always be, 
          F         G         C
I've got a dream, I've got a dream
C                       G                           Am              D7/F              G
They can change their minds but they can't change me, I've got a dream, I've got a dream
Em                  F                 C         E              Am                    G
Oh, I know I could share it if you want me to, If you're going my way, I'll go with you
Em                 F          Em                  A7       F              G                 Riff 1
Movin' me down the highway, Rollin' me down the highway, Movin' ahead so life won't pass me by


************************************

| h  Hammer-on
| p  Pull-off
| /  Slide up

************************************
Suggest correction
Give kudos to tab author, rate the tab!
1 2 3 4 5
comments
print report bad tab
guest
You may want to rate the tab now too:
select rating
Wanna post a correction for this tab? Suggest correction