Oops, an error
Loading. Please wait.

Ill Have To Say I Love You In A Song Tab

version 1
version 1

Whole song

59,349 views 66 this week
2 commentsread comments
1 2 3 4 5
x 9
add to favorites
launch autoscroll
font size
0
reset
how to read this tab
guitar tuner
Autoscroll
slow
fast
+/-
esc
set tempo
stop
Help us to improve Ultimate-Guitar.com Take our survey!
×
Difficulty
intermediate
Gtr I (E A D G B E) - 'gtr 1'
Gtr II (E A D G B E) - 'gtr 2'
Gtr III (E A D G B E) - 'lead gtr'

 [Intro]
   Amaj7               C#m               Bm               Dm      E7
  4/4
   Gtr I
   E E E E E E E  E    E E E E E E E E   E E E E E E Q    E E E E E E E E
e|-------------------|---------4-------|----------------|-----------------|
B|-----2-----2-------|-----5-----5-----|-----3-----3----|-------6-5---5---|
G|---1-----1-----(1)-|---6---------6---|---4-----4------|-----7-----7-----|
D|-------------------|-------6-------6-|-------4--------|---7-----------6-|
A|-0-----------0-----|-4---------------|-2-----------2S=|=5-------7-------|
E|-------0-----------|-----------------|----------------|-----------------|

   Amaj7               C#m
   E E E E E E E  E     E  E E     E E E E  E
e|-------------------|---------------4--------|
B|-----2-----2-------|-------5---------5------|
G|---1-----1-----(1)-|-----6-------------6----|
D|-------------------|-------------6--------6-|
A|-0-----------0-----|--4---------------------|
E|-------0-----------|------------------------|
 |
 | Gtr II
 | E E Q   E E E  E     E  E S +S  E E E E  E
e|-------------------|-------9-(9)s7-----7----|
B|-----7---7------7--|-(7)-----------7-----10-|
G|---9-------9-------|-----9-----------9------|
D|-7-----------7-----|------------------------|
A|-------------------|------------------------|
E|-------------------|--7---------------------|

   Bm                     Dm          E7
     E  E E E E  E Q       E  E  E  E E E  E E
e|------------2---------|----------------------||
B|--------3------3------|-----------6-5----5---||
G|------4---------------|--------7------7------||
D|----------4-----------|-----7--------------6-||
A|---2-------------2S===|==5----------7--------||
E|----------------------|----------------------||
 |
 |   E  E E Q    Q    E    E  E  E  Q   Q.
e|----------7-----------|----------10---7------||
B|-(10)---------10---10-|-------10------7------||
G|--------7-------------|----10---------7------||
D|------7---------------|-12-------------------||
A|----------------------|----------------------||
E|---7------------------|----------------------||

  [Verse 1, 2 & 3]
     $
     Amaj7             C#m
     E E E E E E E E    E  E E E E E E  E
e||----------4-------|--------------------|
B||o-----2-----2-----|-------5-----5------|
G||----1---------1---|-----6-----6--------|
D||--------2---------|---------6----------|
A||o-0-------------0-|--4------------4--3-|
E||------------------|--------------------|
 |
 |   E E Q   E E E E   +E  E E E E E E  E
e||------------------|-------9p7-----7----|
B||o-7h9-----7h9---7-|-(7)-------7-----10-|
G||------9-------9---|-----9-------9------|
D||------------------|--------------------|
A||o-----------------|--------------------|
E||------------------|--------------------|

   Bm                      E
     E  E E E E  E E  E    E E E E Q   Q
e|-----------------------|-----0-----------|
B|--------3------3-------|-----0-----------|
G|------4-----4------(4)-|---1---1-2S==4---|
D|----------4------4-----|-----------------|
A|---2-------------------|-----------------|
E|-----------------------|-0-------2S==4---|
|
 |   E  E E Q    Q    E    E E E E E E E E
e|----------7------------|-----------------|
B|-(10)---------10---10--|---9-7---7h9-7---|
G|--------7--------------|-------9-------2-|
D|------7----------------|-----------------|
A|-----------------------|-7---------------|
E|---7-------------------|-----------------|

   Amaj7             C#m
   E E E E E E E E    E  E E E E E E  E
e|-----0-----0-----|--------------------|
B|-----2-----2-----|-------5-----5------|
G|---1-----1-----1-|-----6-----6--------|
D|-------2---------|---------6----------|
A|-0-----------0---|--4------------4--3-|
E|-----------------|--------------------|
|
 | E E Q   E E E E    E  E E E E E E  E
e|-----------------|-------9p7-----7----|
B|-----9---7-----7-|-(7)-------7-----10-|
G|---9-------9-----|-----9-------9------|
D|-7-----------7---|--------------------|
A|-----------------|--------------------|
E|-----------------|--7-----------------|

   Bm                      E
     E  E E E E  E E  E    E E E E Q   Q
e|-----------------------|-----0------------||
B|--------3------3-------|-----0------------||
G|------4-----4------(4)-|---1---1-2S==4----||
D|----------4------4-----|------------------||
A|---2-------------------|------------------||
E|-----------------------|-0-------2S==4----||
|
 |   E  E E Q    Q    E    E E E E E E E E
e|----------7------------|------------------||
B|-(10)---------10---10--|---9-7---7h9---7--||
G|--------7--------------|-------9----------||
D|------7----------------|---------7h9-7----||
A|-----------------------|-7----------------||
E|---7-------------------|------------------||

 [Chorus]
   D                  D#°7
    E E E E E E E E    E  E E E E E E E
e|------2-----2-----|-------2-----2-----|
B|------------------|-----------------1-|
G|----2-----2-----2-|-----2-----2---2---|
D|--0-----0-----0---|--1------1---------|
A|------------------|-------------------|
E|------------------|-------------------|
|
 |  E E E E Q   Q      E  E E Q   Q   E
e|------------------|-------------------|
B|--------7---------|---------7---------|
G|------7---7---7---|-------8-----8---8-|
D|----7-------------|----10-------------|
A|------------------|-------------------|
E|-10---------------|-11----------------|

   C#7                     F#m       D
   E  E  E E  E  E  E  E   E  E  E E  E E E E
e|-------4-------4-------|---------------------|
B|---------------------6-|-------2--------3----|
G|----4-------4----------|----2----2----2---2--|
D|---------6-------(6)---|------------0--------|
A|-4---------------------|---------------------|
E|-----------------------|-2-------------------|
 |
 | E  E  E E +H            E  E  Q    E E E E
e|-----------------------|---------------------|
B|---------9-(9)---------|------10----7-----7--|
G|------10---------------|----------------7----|
D|---11------------------|---11---------7------|
A|-----------------------|-9-------------------|
E|-9---------------------|-----------10--------|

   1.
   Amaj7                 E
   E E  E E E  E E  E    E E E E E E Q
e|---------------------|-----------2p0---|
B|------2------2-------|-----0-----0-----|
G|---1------1------(1)-|---1-----1-------|
D|---------------------|-------2---------|
A|-0-------------0-----|-----------------|
E|--------0------------|-0---------------|
|
 | E E  E E E  E E  E    E E E E E E E E
e|---------------------|-----------------|
B|-----10-----10---10--|---9p7---7h9---7-|
G|---9------9----7-----|---9---9---------|
D|-7------7------------|---------7h9-7---|
A|---------------------|-7---------------|
E|---------------------|-----------------|

                                        [To Coda]
   D                        Amaj7     E
         |-3-|
    E  E S S S E E  E E E    E  E E E  E E  E  E
e|-------0h2p0---0h=2-----|------------------------||
B|-------------3------3---|-----2---0-(0)--(0)----o||
G|-----2----------------2-|-----1---1-(1)---1------||
D|--0------------0--------|-------2------2-----2---||
A|------------------------|--0--------------------o||
E|------------------------|------------0-----------||
|
 |  E  Q       Q    Q   E   +E  Q   E  E E  E  E
e|----------------------7-|-(7)-9------------------||
B|-(7)---------9---10-----|------------7h9--7-----o||
G|-----7------------------|---------9----------7---||
D|--7----------9---11-----|------------------------||
A|------------------------|-----------------------o||
E|------------------------|------------------------||

   2.
   Amaj7                 E
   E E  E E E  E E  E    E E E E E E Q
e|---------------------|-----------2p0---|
B|------2------2-------|-----0-----0-----|
G|---1------1------(1)-|---1-----1-------|
D|---------------------|-------2---------|
A|-0-------------0-----|-----------------|
E|--------0------------|-0---------------|
|
 | E E  E E E  E E  E    E E E E E E E E
e|---------------------|-----------------|
B|-----10-----10---10--|---9p7---7h9---7-|
G|---9------9----7-----|---9---9---------|
D|-7------7------------|---------7h9-7---|
A|---------------------|-7---------------|
E|---------------------|-----------------|
 |
 | Gtr III
 | W                     W
e|---------------------|-----------------|
B|---------------------|-----------------|
G|---------------------|-----------------|
D|---------------------|-----------------|
A|---------------------|-----------------|
E|---------------------|-----------------|

  D                            Amaj7     E
         |--3---|
    E  E S  S   S  E E  E E E    E  E E E  E E E E
e|-------0h(2)p(0)---0h=2-----|---------------------||
B|-----------------3------3---|-----2---0-(0)-------||
G|-----2--------------------2-|-----1---1-(1)--1----||
D|--0----------------0--------|-------2------2---2--||
A|----------------------------|--0------------------||
E|----------------------------|------------0--------||
 |
 |  E  Q           Q    Q   E   +E  Q   E  E E E E
e|--------------------------7-|-(7)-9---------------||
B|-(7)-------------9---10-----|------------7h9-7----||
G|-----7--------------------7-|---------9--------7--||
D|--7--------------9---11-----|---------------------||
A|----------------------------|---------------------||
E|----------------------------|---------------------||
 |
 |  W                            H         Q   E E
e|----------------------------|---------------------||
B|----------------------------|---------------------||
G|----------------------------|----------------2-4--||
D|----------------------------|---------------------||
A|----------------------------|---------------------||
E|----------------------------|---------------------||

[Guitar Solo]
   Amaj7               C#m
   E E E E E E E  E     E  E E E E E E  E
e|-------------------|-----------4--------|
B|-----2-----2-------|-------5-----5------|
G|---1-----1-----(1)-|-----6---------6----|
D|-------------------|---------6--------6-|
A|-0-----------0-----|--4-----------------|
E|-------0-----------|--------------------|
 |
 | E E E E E E E  E     E  E E E E E E  E
e|-------------------|-------9p7-----7----|
B|-----7h9-7------7--|-(7)-------7-----10-|
G|---9-------9-------|-----7-------9------|
D|-7-----------7-----|--------------------|
A|-------------------|--------------------|
E|-------------------|--7-----------------|
 |
 | E E E E E Q    E    +W
e|-------------------|--------------------|
B|-----5---5-7----5--|-(5)----------------|
G|-4S6---6-----------|--------------------|
D|-------------------|--------------------|
A|-------------------|--------------------|
E|-------------------|--------------------|

   Bm                   E
   E E E E E  E E  E     E  E  E E  Q    Q
e|--------------------|--------0--------------|
B|-----3------3-------|--------0--------------|
G|---4-----4------(4)-|-----1----1------------|
D|-------4------4-----|-------------2----4----|
A|-2------------------|-----------------------|
E|--------------------|--0----------2----4----|
 |
 | E E E Q    Q    E     E  E  E E  E  E E E
e|-------7------------|-----------------------|
B|-----------10---10--|-----9--7----7h=9---7--|
G|-----7--------------|----------9------------|
D|---7----------------|-------------7h=9-7----|
A|--------------------|--7--------------------|
E|-7------------------|-----------------------|
 |
 | Q   E E E  Q    E    +E  Q.     +Q    E E
e|--------------------|-----------------------|
B|-----3-2--------/2--|-(2)-------------------|
G|---------4--2-------|-----4------(4)---2-4--|
D|--------------------|-----------------------|
A|--------------------|-----------------------|
E|--------------------|-----------------------|

   Amaj7             C#m
   E E E E E E E E    E  E E E E E E  E
e|-----0-----0-----|--------------------|
B|-----2-----2-----|-------5-----5------|
G|---1-----1-----1-|-----6-----6--------|
D|-------2---------|---------6----------|
A|-0-----------0---|--4------------4--3-|
E|-----------------|--------------------|
 |
 | E E E E E E E E    E  E E E E E E  E
e|-----------------|-------9p7-----7----|
B|-----7h9-7-----7-|-(7)-------7-----10-|
G|---9-------9-----|-----9-------9------|
D|-7-----------7---|--------------------|
A|-----------------|--------------------|
E|-----------------|--7-----------------|
 |
 | E E Q   Q   E E    W
e|---------5---7-7S|==9-----------------|
B|-----5-----------|--------------------|
G|-4S6-------------|--------------------|
D|-----------------|--------------------|
A|-----------------|--------------------|
E|-----------------|--------------------|

   Bm                       E
     E  E  E E E  E E  E     E  E E E Q   Q
e|------------------------|-------0--------------||
B|---------3------3-------|-------0--------------||
G|------4------4------(4)-|-----1---1-2S==4------||
D|-----------4------4-----|----------------------||
A|---2--------------------|----------------------||
E|------------------------|--0--------2S==4------||
|
 |   E  E  E Q    Q    E     E  E E E E E E  E
e|-----------7------------|----------------------||
B|-(10)----------10---10--|-----9-7---7h9----7---||
G|---------7--------------|---------9------------||
D|------7-----------------|-----------7h9-7------||
A|------------------------|--7-------------------||
E|---7--------------------|----------------------||
 |
 |                                  >
 |   Q     E E E  Q    E    +E  Q   Q   Q    E
e|--------10-9-7----------|----------------------||
B|---------------10----9--|-(9)-7---9---7---(5)--||
G|------------------------|----------------------||
D|------------------------|----------------------||
A|------------------------|----------------------||
E|------------------------|----------------------||

 [Chorus]
   D                   D#°7
    E  E E E E E E E    E  E E E E E E E
e|-------2-----2-----|-------2-----2-----|
B|-------------------|-----------------1-|
G|-----2-----2-----2-|-----2-----2---2---|
D|--0------0-----0---|--1------1---------|
A|-------------------|-------------------|
E|-------------------|-------------------|
|
 |  E  E E E Q   Q      E  E E Q   Q   E
e|-------------------|-------------------|
B|-(7)-----7---------|---------7---------|
G|-------7---7---7---|-------8-----8---8-|
D|-----7-------------|----10-------------|
A|-------------------|-------------------|
E|-10----------------|-11----------------|

   C#7                     F#m       D
   E  E  E E  E  E  E  E   E  E  E E  E E E E
e|-------4-------4-------|---------------------|
B|---------------------6-|-------2--------3----|
G|----4-------4----------|----2----2----2---2--|
D|---------6-------(6)---|------------0--------|
A|-4---------------------|---------------------|
E|-----------------------|-2-------------------|
|
 | E  E  E E +H            E  E  Q    E E E E
e|-----------------------|---------------------|
B|---------9-(9)---------|------10----7-----7--|
G|------10---------------|----------------7----|
D|---11------------------|---11---------7------|
A|-----------------------|-9-------------------|
E|-9---------------------|-----------10--------|

   Amaj7                 E
   E E  E E E  E E  E    E E E E E E Q
e|---------------------|-----------2p0---|
B|------2------2-------|-----0-----0-----|
G|---1------1------(1)-|---1-----1-------|
D|---------------------|-------2---------|
A|-0-------------0-----|-----------------|
E|--------0------------|-0---------------|
 |
 | E E  E E E  E E  E    E E E E E E E E
e|---------------------|-----------------|
B|-----10-----10---10--|---9p7---7h9---7-|
G|---9------9----7-----|---9---9---------|
D|-7------7------------|---------7h9-7---|
A|---------------------|-7---------------|
E|---------------------|-----------------|

                                     D.S. al Coda
   D                        Amaj7     E
         |-3-|
    E  E S S S E E  E E E    E  E E E  E  E   E   E
e|-------0h2p0---0h=2-----|---------------------------||
B|-------------3------3---|-----2---0-(0)-------------||
G|-----2----------------2-|-----1---1-(1)-----1-------||
D|--0---------------------|-------2-------2-------2---||
A|------------------------|--0------------------------||
E|------------------------|------------0-(0)-(0)-(0)--||
 |
 |  E  Q       Q    Q   E   +E  Q   E  E  E   E   E
e|----------------------7-|-(7)-9---------------------||
B|-(7)---------9---10-----|------------7h=9---7-------||
G|-----7------------------|---------9-------------7---||
D|--7----------9---11-----|---------------------------||
A|------------------------|---------------------------||
E|------------------------|---------------------------||

 [Outro]
   &
   Amaj7               C#m
   E E E E E E E  E     E  E E     E E E E  E
e|-------------------|------------------------|
B|-----2-----2-------|-------5---------5------|
G|---1-----1-----(1)-|-----6---------6--------|
D|-------------------|-------------6----------|
A|-0-----------0-----|--4----------------3--4-|
E|-------0-----------|------------------------|
|
 | E E E E E E E  E    +E  E S +S  E E E E  E
e|-------------------|-------9-(9)p7-----7----|
B|-----7h9-7------7--|-(7)-----------7-----10-|
G|---9-------9-------|-----9-----------9------|
D|-7-----------7-----|------------------------|
A|-------------------|------------------------|
E|-------------------|------------------------|

   Bm                     Dm          E7
     E  E E E E  E Q       E  E  E  E E E  E E
e|----------------------|----------------------|
B|--------3------3------|-----------6-5----5---|
G|------4-----4---------|--------7------7------|
D|----------4-----------|-----7--------------6-|
A|---2-------------2S===|==5----------7--------|
E|----------------------|----------------------|
 |
 |   E  E E Q    Q    E    E  E  E  Q   Q.
e|----------7-----------|----------10---7------|
B|-(10)---------10---10-|-------10------7------|
G|--------7-------------|----10---------7------|
D|------7---------------|-12-------------------|
A|----------------------|----------------------|
E|---7------------------|----------------------|

   Amaj7               C#m
   E E E E E E  E  E    E  E E     E E E E  E
e|-------------------|---------------4--------|
B|-----2-----2-------|-------5---------5------|
G|---1-----1-------1-|-----6-------------6----|
D|-------------------|-------------6--------6-|
A|-0------------0----|--4---------------------|
E|-------0-----------|------------------------|
|
 | H       E E  E  E   +E  E S +S  E E E E  E
e|-------------------|-------9-(9)p7-----7----|
B|---------7h9-----7-|-(7)-----------7-----10-|
G|-------------(9)---|-----9-----------9------|
D|-------------------|------------------------|
A|-------------------|------------------------|
E|-------------------|------------------------|

                       H.=H
   Bm                    Dm          E7         Amaj7
     E  E E Q   E Q       E  E  E  E E E  E E    W
e|----------2----------|----------------------|-^0-----------*|
B|--------3-----3------|-----------6-5------5-|-^2-----------*|
G|------4--------------|--------7---------7---|-^1-----------*|
D|---------------------|-----7---------6------|-^2-----------*|
A|---2------------2S===|==5----------7--------|-^0-----------*|
E|---------------------|----------------------|--------------*|
 |
 |   E  E E Q   Q    E    E  E  E  Q   Q.        E Q.  +H
e|----------7----------|----------10---7------|--------------*|
B|-(10)--------10---10-|-------10------7------|--7h9---(9)---*|
G|--------7------------|----10---------7------|--------------*|
D|------7--------------|-12-------------------|--------------*|
A|---------------------|----------------------|--------------*|
E|---7-----------------|----------------------|--------------*|

************************************
Duration Legend

W - whole; H - half; Q - quarter; E - 8th; S - 16th; T - 32nd; X - 64th; a - acciaccatura
+ - note tied to previous; . - note dotted; .. - note double dotted
Uncapitalized letters represent notes that are staccato (1/2 duration)
Irregular groupings are notated above the duration line
Duration letters will always appear directly above the note/fret number it represents the
duration for.  Duration letters with no fret number below them represent rests.  Multi-
bar rests are notated in the form Wxn, where n is the number of bars to rest for.  Low
melody durations appear below the staff

************************************

|(n)   Ghost note
| p    Pull-off
| h    Hammer-on
| /    Slide up
| >    Accented note
| *    Natural harmonic
| s    Slide 

************************************
Suggest correction
comments
print report bad tab
2 comments total.
0 reply
cdoaks 42 Nov 30, 2010 12:17 AM

awesome sir. thank you

0 reply
kmaestro27 22 Mar 25, 2014 12:54 AM

Painstakingly accurate.

guest
You may want to rate the tab now too:
select rating
Wanna post a correction for this tab? Suggest correction