Oops, an error
Loading. Please wait.

Photographs And Memories Tab

version 1
version 1

Solo

Whole song

Interactive

1,317 views 1 this week
no commentswrite comment
1 2 3 4 5
2 more votes to show rating
add to favorites
launch autoscroll
font size
0
reset
how to read this tab
guitar tuner
Autoscroll
slow
fast
+/-
esc
set tempo
stop
Help us to improve Ultimate-Guitar.com Take our survey!
×
Author
"Photographs And Memories"
 - Written by Jim Croce

Solo:

 e|-------------------|-------------------|
 B|-------------------|-------------------|
 G|-------------------|-------------4-4~--|
 D|---5-4-------------|-----5-4-5-7-------|
 A|-------5-----7-7~--|---5---------------|
 E|---------7/9-------|-------------------|

  |-------------------|-------------------|
  |-------------------|-------------------|
  |----4-5-4--4-------|-------------------|
  |---7-----7--4-7-5--|-----------7-7-----|
  |-------------------|---5-5-5/7---------|
  |-------------------|-------------------|

  |-------------------|
  |-------------------|
  |-------------------|
  |---5-4-------------|
  |-------7-5~--------|
  |-------------------|
Suggest correction
Give kudos to tab author, rate the tab!
1 2 3 4 5
comments
print report bad tab
guest
You may want to rate the tab now too:
select rating
Wanna post a correction for this tab? Suggest correction