Oops, an error
Loading. Please wait.

Photographs And Memories Tab

version 1
version 1

Whole song

Interactive

42,664 views 57 this week
6 commentsread comments
1 2 3 4 5
x 23
add to favorites
launch autoscroll
font size
0
reset
how to read this tab
guitar tuner
×
Best way to learn
"Photographs And Memories"
Autoscroll
slow
fast
+/-
esc
set tempo
stop
[Intro]
   Gmaj7           Cmaj7             Gmaj7           Cmaj7 
e|-----2---3-2-----0---------------------2---3-2-----0-----------------|
B|-----0-------0-------0-----0-----------0-------0-------0-----0-------|
G|---0---0-------0---0-----0-------0---0---0-------0---0-----0-------0-|
D|-----------------------2-----0h2-------------------------2-----0h2---|
A|-----------------3---------------------------------3-----------------|
E|-3---------------------------------3---------------------------------|

[Verse 1]
   Gmaj7           Cmaj7             Gmaj7           Cmaj7      
e|-----2---3-2-----0---------------------2---3-2-----0-----------|
B|-----0-------0-------0-----0-----------0-------0-------0-----0-|
G|---0---0-------0---0-----0-------0---0---0-------0---0-----0---|
D|-----------------------2-----0h2-------------------------2-----|
A|-----------------3---------------------------------3-----------|
E|-3---------------------------------3---------------------------|
      Photographs and memories          Christmas cards you sent to me

       Am7     Bm7     Em            Am7             D7sus2 D7     
e|---------------------------------------0-----0---------0----2-----|
B|---------1-------3-------0---0---------1-----1---------1----1-1---|
G|-------0-------2-------0-------------0-----0-----0---2----2-----2-|
D|-----------2-------4-------2-------------2-----2---0--------------|
A|-3-2-0-------2-----------------2-1-0------------------------------|
E|---------------------0--------------------------------------------|
      All that I have are these to remember you

[Verse 2]
   Gmaj7           Cmaj7             Gmaj7           Cmaj7
e|-----2---3-2-----0---------------------2---3-2-----0-----------|
B|-----0-------0-------0-----0-----------0-------0-------0-----0-|
G|---0---0-------0---0-----0-------0---0---0-------0---0-----0---|
D|-----------------------2-----0h2-------------------------2-----|
A|-----------------3---------------------------------3-----------|
E|-3---------------------------------3---------------------------|
      Memories that come at night       take me to another time

       Am7     Bm7     Em            Am7             D7sus2 D7 
e|---------------------------------------0-----0---------0------2-----|
B|---------1-------3-------0---0---------1-----1---------1------1-----|
G|-------0-------2-------0-------------0-----0-----0---2------2-----2-|
D|-----------2-------4-------2-------------2-----2---0------0-----0---|
A|-3-2-0-------2-----------------2-1-0--------------------------------|
E|---------------------0----------------------------------------------|
      Back to a happier day     when I called you mine

[Chorus]
      Gmaj7     Cmaj7           Gma7          Cmaj7           Gmaj7         Cmaj7 
e|------2---2-----0-------0-------0h2-----2-----0-------0-------0h2-----2-----0-------0-----|
B|------0-------------0-------0-------1-------------0-------0-------1-------------0-------0-|
G|------0-----0-----0-------0---------------0-----0-------0---------------0-----0-------0---|
D|----------------------2-----------------------------2-----------------------------2-------|
A|--------------3-----------------------------3-----------------------------3---------------|
E|----3---3---------------------3-------3---------------------3-------3---------------------|
 But we sure had a good time when we started way back when Morning walks and bedroom talks

     Bm      Fm      D7     
e|-------2-------2-------0-2-|
B|-----3-3-----2-2-----1-1-1-|
G|-----4-------2-------2-----|
D|-------------------0-------|
A|---2-----2-4-----4---------|
E|---------------------------|
 Oh how I loved you then

[Verse 3]
   Gmaj7           Cmaj7             Gmaj7           Cmaj7
e|-----2---3-2-----0---------------------2---3-2-----0-----------|
B|-----0-------0-------0-----0-----------0-------0-------0-----0-|
G|---0---0-------0---0-----0-------0---0---0-------0---0-----0---|
D|-----------------------2-----0h2-------------------------2-----|
A|-----------------3---------------------------------3-----------|
E|-3---------------------------------3---------------------------|
          Summer skys and lullabies         Nights we couldn't say goodbye

       Am7     Bm7     Em            Am7             D7sus2 D7
e|---------------------------------------0-----0---------0------2-----|
B|---------1-------3-------0---0---------1-----1---------1------1-----|
G|-------0-------2-------0-------------0-----0-----0---2------2-----2-|
D|-----------2-------4-------2-------------2-----2---0------0-----0---|
A|-3-2-0-------2-----------------2-1-0--------------------------------|
E|---------------------0----------------------------------------------|
      and of all of the things that we knew not a dream survivied

[Solo]
e|------------------------------------------------------------------------------|
B|------------------------------------------------------------------------------|
G|-----------------------0--------------4-4---4-5-4-----------------------------|
D|-2/5-4-0-----2-2-2-0h2--------5-4-5/7-----7-------7-9---7-5---------7-7-5-4/5-|
A|---------2/5----------------5-------------------------9-----5-5-5/7-----------|
E|-------------------------3----------------------------------------------------|

e|-----2---3-2-----0---------------------2---3-2-----0-----------------|
B|-----0-------0-------0-----0-----------0-------0-------0-----0-------|
G|---0---0-------0---0-----0-------0---0---0-------0---0-----0-------0-|
D|-----------------------2-----0h2-------------------------2-----0h2---|
A|-----------------3---------------------------------3-----------------|
E|-3---------------------------------3---------------------------------|

[Verse 4]
   Gmaj7           Cmaj7             Gmaj7           Cmaj7
e|-----2---3-2-----0---------------------2---3-2-----0--------------|
B|-----0-------0-------0-----0-----------0-------0-------0-----0----|
G|---0---0-------0---0-----0-------0---0---0-------0---0-----0------|
D|-----------------------2-----0h2-------------------------2--------|
A|-----------------3---------------------------------3--------------|
E|-3---------------------------------3------------------------------|
          Photgraphs and memories           all the love you gave to me 

       Am7     Bm7     Em            Am7             D7sus2 D7
e|---------------------------------------0-----0---------0----2-----|
B|---------1-------3-------0---0---------1-----1---------1----1-1---|
G|-------0-------2-------0-------------0-----0-----0---2----2-----2-|
D|-----------2-------4-------2-------------2-----2---0--------------|
A|-3-2-0-------2-----------------2-1-0------------------------------|
E|---------------------0--------------------------------------------|
      Somehow it just can't be true that's all I've left of you

[Chorus]
      Gmaj7     Cmaj7           Gma7          Cmaj7           Gmaj7         Cmaj7 
e|------2---2-----0-------0-------0h2-----2-----0-------0-------0h2-----2-----0-------0-----|
B|------0-------------0-------0-------1-------------0-------0-------1-------------0-------0-|
G|------0-----0-----0-------0---------------0-----0-------0---------------0-----0-------0---|
D|----------------------2-----------------------------2-----------------------------2-------|
A|--------------3-----------------------------3-----------------------------3---------------|
E|----3---3---------------------3-------3---------------------3-------3---------------------|
 But we sure had a good time when we started way back when Morning walks and bedroom talks

     Bm     Fm          
e|-------2--2-|
B|-----3-3--2-|
G|-----4----2-|
D|----------4-|
A|---2------4-|
E|------------|
 Oh how I loved you then


************************************

| h  Hammer-on
| /  Slide up

************************************
Suggest correction
comments
print report bad tab
6 comments total. Showing first comments.
0 reply
Witchhazel 99 Jun 29, 2006 02:26 PM

Great tab, great work!!!!

0 reply
santyclaws 487 Sep 22, 2006 02:13 PM

Awesome

0 reply
dragonball 31 Aug 05, 2007 12:32 AM

good

guest
You may want to rate the tab now too:
select rating
Wanna post a correction for this tab? Suggest correction