Oops, an error
Loading. Please wait.

Lone Star Tab

2,028 views 1 this week
no commentswrite comment
1 2 3 4 5
x 5
add to favorites
launch autoscroll
font size
0
reset
how to read this tab
guitar tuner
Autoscroll
slow
fast
+/-
esc
set tempo
stop
Help us to improve Ultimate-Guitar.com Take our survey!
×
Author
-------------------------------------------------------------------------------
                                                     LONE STAR - Jim Guthrie
-------------------------------------------------------------------------------
http://www.jimguthrie.org

Tabbed by: Lakos Péter
Website: http://lakospeter.hu
E-mail: lakospeter91@gmail.com

Tuning: Standard (EADGBe)

----------------------------------------
              RHYTHM GUITAR                         
----------------------------------------

VERSE
e|------------------------------------------|
B|------------------------------------------|
G|------------------------------------------|
D|------------------------------------------|   x3
A|---9---7---5-------9-9-10---7--------5---4|
E|-7---5---3---2---7--------5---10\3-3---2--|

CHORUS
e|-----------------------------------------------|
B|-----------------------------------------------|
G|-----------------------------------------------|
D|-----------------------------------------------|
A|-----------------------------------------------|
E|-10-10-5-5-7-7-3-3--10-10-5-5-7-7-2-2--2-2-2-2-|

VERSE x2

          e|---|
          B|---|
end on:   G|---|
          D|---|
          A|---|
          E|-7-|

BREAK
e|-------7--7-------|
B|-----7------7-----|
G|---7----------7---|
D|-9--------------9-|
A|------------------|
E|------------------|

BRIDGE
e|-------7--------5--------3--------2-|
B|-----7--------5--------3--------2---|
G|---7--------6--------4--------3-----|
D|-9--------7--------5--------4-------|   x4
A|------------------------------------|
E|------------------------------------|


e|-------2-|
B|-----2---|
G|---3-----|
D|-4-------|
A|---------|
E|---------|

BREAK x1

          e|-7-|
          B|-7-|
end on:   G|-7-|
          D|-9-|
          A|---|
          E|---|


----------------------------------------
               LEAD GUITAR                         
----------------------------------------

Lead guitar joins in when rhythm starts playing the verse the second time.

MAIN LICK
e|----9-10-9--------------------------9-10-9-----------------|
B|-12--------12--------------------12--------12--------11----|
G|--------------11-9-7-9-11---------------------11-9-7----11-|
D|--------------------------7-9-7----------------------------|
A|-----------------------------------------------------------|
E|-----------------------------------------------------------|

                                                                  x3
e|----9-10-9--------------------------9-10-9-----------------|
B|-12--------12--------------------12--------12--------11----|
G|--------------11-9-7-9-11---------------------11-9-7-------|
D|--------------------------7-9-7----------------------------|
A|-----------------------------------------------------------|
E|-----------------------------------------------------------|


            e|-----9------|
            B|-11-----12--|
end with:   G|------------|
            D|------------|
            A|------------|
            E|------------|

Pause, then join in again when rhythm starts playing the verse the second time.

e|----9-10-9--------------------------9-10-9-----------------|
B|-12--------12--------------------12--------12--------11----|
G|--------------11-9-7-9-11---------------------11-9-7----11-|
D|--------------------------7-9-7----------------------------|   x2
A|-----------------------------------------------------------|
E|-----------------------------------------------------------|

            e|----9-----|
            B|-11---12--|
end with:   G|----------|
            D|----------|
            A|----------|
            E|----------|

Lead doesn't play during the break.

BRIDGE
e|-----------------------------------------------------------------|
B|-----------------------------------------------------------------|
G|-----------------------------------------------------------------|
D|-----------------------------------------------------------------|   x2
A|-2-2-2-2-2-2-2-2/4-4-4-4-4-4-4-4/5-5-5-5-5-5-5-5/9-9-9-9-9-9-9-9-|
E|-----------------------------------------------------------------|


e|---------------------------------------------------------------------|
B|---------------------------------------------------------------------|
G|---4---4---4---4---6---6---6---6---7---7---7---7---11---11---11---11-|
D|---------------------------------------------------------------------|   x2
A|-2---2---2---2---4---4---4---4---5---5---5---5---9----9----9----9----|
E|---------------------------------------------------------------------|


e|------|
B|------|
G|---11-|
D|------|   x12
A|-9----|
E|------|


          e|-7-|
          B|-7-|
end on:   G|-7-|
          D|-9-|
          A|-9-|
          E|-7-|

Pause during the break, then:

e|--------|
B|--------|
G|--------|
D|-9-9-9--|
A|-9-9-9--|
E|-7-7-7--|



************************************

| /   slide up
| \   slide down
| h   hammer-on
| p   pull-off
| ~   vibrato
| +   harmonic
| x   Mute note
| b   Bend
| pb  Pre-bend
| br  Bend release
| pbr Pre-bend release
| brb Bend release bend

************************************
Suggest correction
comments
print report bad tab
guest
You may want to rate the tab now too:
select rating
Wanna post a correction for this tab? Suggest correction