Oops, an error
Loading. Please wait.

We Fly High tab

version 2
version 2

Whole song

353 views 1 this week
3 commentsread comments
1 2 3 4 5
2 more votes to show rating
add to favorites
×
Save as Personal and add changes to this tab that will be seen only by you. Learn more ›
×
You can save this tab as Personal to edit and correct it or add notes. All changes will be seen only by you. Learn more »
launch autoscroll
font size
0
reset
how to read this tab
guitar tuner
edit
Autoscroll
slow
fast
+/-
esc
set tempo
stop
You have to tune it in drop C in order to get that low C, but you can play it in 
tuning too if you play everything two frets lower and leave off the power chord. You also don't 
to play the octave, either note by itself will sound alright, but that way sounds the best.

d|-----------------------------------|
A|----10-11-10---11-10---11-10--8----|
F|-----------------------------------|
C|0---7--8--7----8--7----8--7---5----|
G|0----------------------------------|
C|0----------------------------------|

d|----------------------------------|
A|----10-11-13---11-10---10-11--3---|
F|----------------------------------|
C|0---7--8--10---8--7----7--8---0---|
G|0---------------------------------|
C|0---------------------------------|

            
            
Suggest correction
Creating personal tab
Creating personal tab
You can edit any tab online and save it as your Personal.

You can edit, replace or remove any tab part or add personal notes – all changes will be seen only by you.

Personal tabs can be accessed anytime from any device, even offline.
Learn more »
Give kudos to tab author, rate the tab!
1 2 3 4 5
comments
print report bad tab
3 comments total.
0 reply
Biznatch101 31 Feb 13, 2007 11:19 AM

You deffinetly put more thought into it than I did with mine :P

0 reply
sexy jonny 10 Mar 07, 2007 05:21 PM

no shit he did

0 reply
sexy jonny 10 Mar 07, 2007 05:22 PM

u bitch ass

guest
You may want to rate the tab now too:
select rating
Wanna post a correction for this tab? Suggest correction