Oops, an error
Loading. Please wait.

Wildwood Weed Chords

7 views 7 this week
no commentswrite comment
1 2 3 4 5
2 more votes to show rating
add to favorites
launch autoscroll
font size
0
reset
transpose
0
reset
simplify chords
display chords
guitar tuner
Autoscroll
slow
fast
+/-
esc
set tempo
stop
Help us to improve Ultimate-Guitar.com Take our survey!
×
Author
Difficulty
novice
About this tab version
No other version was posted, so let's give this one a try. Was this info helpful? Yes No
             INTRO

  C                          G           C 
e|-----------------------------------------------|
B|---------1-------------------------------------|
G|-------0---0h2-0---0---------0-----------------|
D|-0h2-3-----------2---2h3-2-0---0h2---------0---|
A|-----------------------------------0-3-0h2---3-|
E|-----------------------------------------------|


  C                          G           C 
e|-----------------------------------------------|
B|---------1-------------------------------------|
G|-------0---0h2-0---0---------0-----------------|
D|-0h2-3-----------2---2h3-2-0---0h2---------0---|
A|-----------------------------------0-3-0h2---3-|
E|-----------------------------------------------|
The name of this song is the wild wood flower. Now the Wild Wood Flower is an old country classic

  C                F           C                            G           C
e|------1-11-------------------------------------------------------------------------|
B|--1-3------3-1-------1-----1------------1------------------------------------------|
G|-0-------------0-0h2---0h2---0--------0---0h2-0---0---------0----------------------|
D|--------------------------------0h2-3-----------2---2h3-2-0---0h2---------0--------|
A|------------------------------------------------------------------0-3-0h2---3--0-2-|
E|-----------------------------------------------------------------------------3-----|
Its gained a whole new popularity. The song isn’t any more popular, But the flower is doing real good.



VERSE 1

C                    Am
Wildwood flower grew wild on the farm.
       G                        C
And we never knowed what it was called
C                             Am
Some said it was a flower and some said it was a weed
G                     C
I didn't give it much thought
C                       C7
One day I was out there talkin' to my brother
      F                               C
And I reached down for a weed to chew on
C                    Am
Things got fuzzy and things got blurry
    G                   C
And then ev'rything was gone

  C                          G           C 
e|-----------------------------------------------|
B|---------1-------------------------------------|
G|-------0---0h2-0---0---------0-----------------|
D|-0h2-3-----------2---2h3-2-0---0h2---------0---|
A|-----------------------------------0-3-0h2---3-|
E|-----------------------------------------------|
Didn't know what happened but I knew it beat the hell out of sniffing burlap



VERSE 2

C                Am
I come to and my brother was there and he said, 
G                            C
"Boy, what's wrong with your eyes?"
C                           Am
I said "I don't know, I was chewin' on a weed"
          G                C
He said, "Let me give it a try"
C                                 C7
We spent the rest of that day and most of that night 
          F               C
Tryin’ to find my brother Bill
C                        Am
Caught up with him about six o'clock the next mornin'
G                     C
Naked, singing on the windmill

  C                          G           C 
e|-----------------------------------------------|
B|---------1-------------------------------------|
G|-------0---0h2-0---0---------0-----------------|
D|-0h2-3-----------2---2h3-2-0---0h2---------0---|
A|-----------------------------------0-3-0h2---3-|
E|-----------------------------------------------|
He said he flew up there. I had to fly up and get him down. He was about half crazy



VERSE 3

C                             Am
The very next day we picked a bunch of them weeds
G                         C
And put 'em in the sun to dry
C                            Am
Then we mashed 'em up and we cleaned 'em off
       G                       C
And we put 'em in the corn cob pipe
C                     C7
Smokin' them wildwood flowers got to be 
         F                C 
A habit, We never seen no harm
C                        Am
We thought it was kind-a handy
          G                        C
To take a trip and never leave the farm

  C                          G           C 
e|-----------------------------------------------|
B|---------1-------------------------------------|
G|-------0---0h2-0---0---------0-----------------|
D|-0h2-3-----------2---2h3-2-0---0h2---------0---|
A|-----------------------------------0-3-0h2---3-|
E|-----------------------------------------------|
Big 'ole puff of that wildwood weed next thing you know You're just wand'ring 'round behind the little animals



VERSE 4

C                      Am
All good things got to come to an end
G                               C
It's the same with the wildwood weeds
C                        Am
One day this feller from Washington come by
    G                               C
And spied one and turned white as a sheet
C                                     C7
And they dug and they burned and they burned and they dug
         F                          C
And they killed all our cute little weeds
C                             Am
Then then they drove away and we just smiled and waved 
NC
Sittin' thar on that sack o' seeds

  C                          G           C     F   G   C
e|---------------------------------------------------------|
B|---------1-----------------------------------------------|
G|-------0---0h2-0---0---------0---------------------0-----|
D|-0h2-3-----------2---2h3-2-0---0h2---------0---2-0-------|
A|-----------------------------------0-3-0h2---3-------3---|
E|---------------------------------------------------------|
         Y’all come back now, Y’hear
Suggest correction
Give kudos to tab author, rate the tab!
1 2 3 4 5
comments
print report bad tab
guest
You may want to rate the tab now too:
select rating
Wanna post a correction for this tab? Suggest correction