Oops, an error
Loading. Please wait.

1983A Merman I Should Turn To Be Tab

version 1
version 1

Whole song

Interactive

73,937 views 69 this week
5 commentsread comments
1 2 3 4 5
x 18
add to favorites
launch autoscroll
font size
0
reset
how to read this tab
guitar tuner
Autoscroll
slow
fast
+/-
esc
set tempo
stop
Help us to improve Ultimate-Guitar.com Take our survey!
×
Author
Difficulty
advanced
(For the real Electric Ladyland version, tune 1/2 step down)
e|-----------------------------------------------------------------------------|
B|-----------------------------------------1---------------3--3--3-------------|
G|-------------2-----------------------0-----0---2---------2--2--2-------------|
D|---------2---2-----------------0h2-------------0------------0--0---------2---|
A|-12\--0-------------0----0h3-----------------3--------------------0---3------|
E|-12\--------------0----------------------------------------------------------|

e|-------------------------------------------|
B|-------------------------------------------|
G|-2--0--2--------2--2-2----------------5--4-|
D|----------------2--2-2----5-4--5--4---5--4-|
A|---------0---------0-0-0--3-2--3--2---3--2-|
E|-----------------------0--3-2--3--2---3--2-|

e|------------------------------------------|
B|-----------3------------------------------|
G|--2--2--------2--2---------2---------0----|
D|--0--0--------0--0-----0------------------|
A|--------------------0------------3------3-|
E|------------------------------3-----------|

e|------------------------------------------|
B|------------------------------------------|
G|-------2-------5---4--5--4---5---4--------|
D|-2-------------5---4--5--4---5---4--------|
A|-0--0----0-----3---2--3--2---3---2--------|
E|------------0--3---2--3--2---3---2--------|

e|------------------------------------------|
B|---3---3--3-------------------------------|
G|---2---2--2--2------0--2------------2-----|
D|0------------0--0---------------2---------|
A|0-------------------------0--3------------|
E|------------------------------------------|

e|------------------------------------------|
B|------------------------------------------|
G|--------2-------5---4--5---4--5---4-------|
D|-2--2---2-------5---4--5---4--5---4-------|
A|-0--0------0-0--3---2--3---2--3---2-------|
E|----------------3---2--3---2--3---2-------|

e|-------------------------x----------------|
B|---3----3---3------------x----------------|
G|---2----2---2------------x-----6----------|
D|---0----0---0---0---0----x-----6----------|
A|-------------------------------4----------|
E|------------------------------------------|

  [Verse]
  D5
e|------------------------------------------|
B|--------7---------------------------------|
G|------------------------------7-----------|
D|7------------7-----------7----------------|
A|5-------------------5---------------5-----|
E|------------------------------------------|
Hooray I awake from yesterday,         a-

  C#m7
e|-------------------------------------------|
B|----------5h7p5----------------------------|
G|-----------------6-4--4h6p4-----------4----|
D|-----6----------------------6-------6------|
A|-4--------------------------------4------4-|
E|-------------------------------------------|
live but the war is here to stay

  C6
e|-----------5----------5-------------------|
B|-----------5------------5-----------------|
G|-----------5---------------5-----------5--|
D|-----5-----------------------5------3-----|
A|-3-------------3---------------3----------|
E|------------------------------------------|
So my love Catherina and  me  decide to

  Bm7
e|-------------------------------------------|
B|--------3h5p3---------------------3--------|
G|--------------2-------------2-------2------|
D|------4------------------4------------4----|
A|-2---------------------2-----------------2-|
E|-------------------------------------------|
take our last walk thru the noise to the sea

  Bb6
e|-------------------3----------------------|
B|---------------------3--------------------|
G|-----------3-----------3------------------|
D|------3-------------------3----------3----|
A|--1------------1----------------1---------|
E|------------------------------------------|
Not to die but to be re-born........a-

  Asus4
e|------------------------------------------|
B|3-----------3--------3-----3-------3------|
G|2-----------2--2-----2-----2-------2------|
D|2-----------2--------2-----2-------2--0---|
A|0-----------0-------------------------0---|
E|------------------------------------------|
way from the lands so battered and torn...

  A5
e|---------------|
B|---------------|
G|--2------------|
D|--2------------|
A|--0------------|
E|----------16\--|x
          for-

  A5
e|-----0-----------------------------------|
B|-----0-----------------------------------|
G|2----2--------------------------0--------|
D|2-------------------------0h2------------|
A|0-------------------0h3-------------3----|
E|-----------------------------------------|
-ever....................................

  D5
e|------------------------|
B|-3-----3----------------|
G|-2-----2----------------|
D|-0-----0-----------0----|
A|--------------0--0----3-|
E|----------0-3---3-------|
               for-....
Amsus2
e|-----------0-----------------------------|
B|-----------0-----------------------1-----|
G|-----------2--------------------0----0---|
D|----2--2------2----------0h2-------------|
A|0----------------0--0h3------------------|
E|-----------------------------------------|
ever..............

D
e|-2--------2------------6------|
B|-3-----3--3------3--x--6------|
G|-2-----2--2---2--2--x--6------|
D|-0-----0--0---0--0--x--4------|
A|------------------------------|
E|------------------------------|


************************************

| h  Hammer-on
| \  Slide down
| x  Dead note
| p  Pull-off

************************************
Suggest correction
comments
print report bad tab
5 comments total. Showing first comments.
+1 reply
weeks 10 Jan 26, 2006 08:56 AM

pretty good

+1 reply
Rockingrinske 80 Aug 17, 2007 09:49 AM

cool song.

+1 reply
Pkr69 10 Oct 17, 2009 06:05 AM

Great song, thax alot

guest
You may want to rate the tab now too:
select rating
Wanna post a correction for this tab? Suggest correction