Oops, an error
Loading. Please wait.

All Along The Watchtower Live Bass Tab

version 1
version 1

Whole song

Interactive

3,858 views 1 this week
no commentswrite comment
1 2 3 4 5
please rate
add to favorites
launch autoscroll
font size
0
reset
guitar tuner
Tab Pro tools
  • play this tab
  • loop segment
  • change instrument
  • show fretboard
  • metronome
Autoscroll
slow
fast
+/-
esc
set tempo
stop
Contributor
Tuning
D# G# C# F# A# D#
#----------------------------------PLEASE NOTE---------------------------------#
#This file is the author's own work and represents their interpretation of the #
#song. You may only use this file for private study, scholarship, or research. #
#------------------------------------------------------------------------------#

ALL ALONG THE WATCHTOWER (LIVE) (Bassline) 
As recorded by Jimi Hendrix
(From the 1970 Album WILD BLUE ANGEL: JIMI HENDRIX LIVE AT THE ISLE OF WIGHT)

Transcribed by guitargod175
	

Words and Music by Bob Dylan

Gtr I (Eb Ab Db Gb) - 'Noel'

                 Intro
  Moderate Rock Q=120
 4/4
  Gtr I
  H    E E E E    E E Q  E E E E   E E Q  E E E E
|--------------||----------------|----------------|
|--------------||----------------|----------------|
|--------------||----------------|----------------|
|--------7-7-9-||-9-9-9----7-7-5-|-5-5-5----7-7-9-|


  E E Q  E S S E E   E S S E S S E E Q
|------------------|--------------------|
|------------------|--------------------|
|------------------|--------------------|
|-9-9-9----7-7-7-5-|-5-5-5-5-5-5-5-7-7--|


  E E Q  E E Q    E E Q  E E E E   E E Q  E E Q    E E E E E E E E
|---------------|----------------|---------------|------------------||
|---------------|----------------|---------------|---------5-7-5----||
|---------------|----------------|---------------|---4-5-7-------x--||
|-9-9-9--7-7-7--|-5-5-5--7-7-7-7-|-9-9-9--7-7-7--|-5----------------||


   1st Verse
    E E E S S E E E S S   E E E E E E E  E
||----------------------|------------------|
||o---------------------|---------7-7-5\-2-|
||o-4---4-4-4-2---2-2-2-|---4-5-7----------|
||----4---------2-------|-5----------------|


  E E E S S E E E E   E S S E E E S S S S E   4x
|-------------------|-------------------------||
|-------------------|-----------7-4-4-2------o||
|-4-4-4-4-4-2-2-2---|---4-4-5-7---------x-2--o||
|-----------------0-|-5-----------------------||


   1st guitar solo
    E E E S S E E E S S   E E E E E E E  E
||----------------------|------------------|
||o---------------------|---------7-7-5\-2-|
||o-4---4-4-4-2---2-2-2-|---4-5-7----------|
||----4---------2-------|-5----------------|


  E E E S S E E E E   E S S E E E S S S S E
|-------------------|-------------------------||
|-------------------|-----------7-4-4-2------o||
|-4-4-4-4-4-2-2-2---|---4-4-5-7---------x-2--o||
|-----------------0-|-5-----------------------||


   2nd Verse
    E E E S S E E E S S   E E E E E E E  E
||----------------------|------------------|
||o---------------------|---------7-7-5\-2-|
||o-4---4-4-4-2---2-2-2-|---4-5-7----------|
||----4---------2-------|-5----------------|


  E E E S S E E E E   E S S E E E S S S S E   4x
|-------------------|-------------------------||
|-------------------|-----------7-4-4-2------o||
|-4-4-4-4-4-2-2-2---|---4-4-5-7---------x-2--o||
|-----------------0-|-5-----------------------||


   2nd Guitar solo
    E E E S S E E E S S   E E E E E E E  E
||----------------------|------------------|
||o---------------------|---------7-7-5\-2-|
||o-4---4-4-4-2---2-2-2-|---4-5-7----------|
||----4---------2-------|-5----------------|


  E E E S S E E E E   E S S E E E S S S S E
|-------------------|-------------------------||
|-------------------|-----------7-4-4-2------o||
|-4-4-4-4-4-2-2-2---|---4-4-5-7---------x-2--o||
|-----------------0-|-5-----------------------||


   3rd Guitar solo
    E E E S S E E E S S   E E E E E E E  E
||----------------------|------------------|
||o---------------------|---------7-7-5\-2-|
||o-4---4-4-4-2---2-2-2-|---4-5-7----------|
||----4---------2-------|-5----------------|


  E E E S S E E E E   E S S E E E S S S S E
|-------------------|-------------------------||
|-------------------|-----------7-4-4-2------o||
|-4-4-4-4-4-2-2-2---|---4-4-5-7---------x-2--o||
|-----------------0-|-5-----------------------||


   4th Guitar solo
    E E E S S E E E S S   E E E E E E E  E
||----------------------|------------------|
||o---------------------|---------7-7-5\-2-|
||o-4---4-4-4-2---2-2-2-|---4-5-7----------|
||----4---------2-------|-5----------------|


  E E E S S E E E E   E S S E E E S S S S E
|-------------------|-------------------------||
|-------------------|-----------7-4-4-2------o||
|-4-4-4-4-4-2-2-2---|---4-4-5-7---------x-2--o||
|-----------------0-|-5-----------------------||


   5th guitar Solo
    E E E S S E E E S S   E E E E E E E  E
||----------------------|------------------|
||o---------------------|---------7-7-5\-2-|
||o-4---4-4-4-2---2-2-2-|---4-5-7----------|
||----4---------2-------|-5----------------|


  E E E S S E E E E   E S S E E E S S S S E
|-------------------|-------------------------||
|-------------------|-----------7-4-4-2------o||
|-4-4-4-4-4-2-2-2---|---4-4-5-7---------x-2--o||
|-----------------0-|-5-----------------------||


   3rd Verse
    E E E S S E E E S S   E E E E E E E  E
||----------------------|------------------|
||o---------------------|---------7-7-5\-2-|
||o-4---4-4-4-2---2-2-2-|---4-5-7----------|
||----4---------2-------|-5----------------|


  E E E S S E E E E   E S S E E E S S S S E   4x
|-------------------|-------------------------||
|-------------------|-----------7-4-4-2------o||
|-4-4-4-4-4-2-2-2---|---4-4-5-7---------x-2--o||
|-----------------0-|-5-----------------------||


   Outro
    E E E S S E E E S S   E E E E E E E  E
||----------------------|------------------|
||o---------------------|---------7-7-5\-2-|
||o-4---4-4-4-2---2-2-2-|---4-5-7----------|
||----4---------2-------|-5----------------|


  E E E S S E E E E   E S S E E E S S S S E   4x
|-------------------|-------------------------||
|-------------------|-----------7-4-4-2------o||
|-4-4-4-4-4-2-2-2---|---4-4-5-7---------x-2--o||
|-----------------0-|-5-----------------------||


    E E Q  E E E E   E E Q  E E E E  3x E E Q  E E E E   E E Q  E E E  E
||-----------------|-----------------||----------------|-----------------|
||o----------------|----------------o||----------------|-----------------|
||o----------------|----------------o||----------------|-----------------|
||--9-9-9----7-7-5-|-5-5-5----7-7-9--||-9-9-9----7-7-5-|-5-5-5----7-7-/9-|


     TP
  Q  Q  H      W          W
|------------|----------|------*|
|------------|----------|------*|
|------------|----------|------*|
|-9--9--9----|----------|------*|



Duration Legend
---------------
W - whole; H - half; Q - quarter; E - 8th; S - 16th; T - 32nd; X - 64th; a - acciaccatura
+ - note tied to previous; . - note dotted; .. - note double dotted
Uncapitalized letters represent notes that are staccato (1/2 duration)
Irregular groupings are notated above the duration line
Duration letters will always appear directly above the note/fret number it represents the
duration for.  Duration letters with no fret number below them represent rests.  Multi-
bar rests are notated in the form Wxn, where n is the number of bars to rest for.  Low
melody durations appear below the staff

Tablature Legend
----------------
 h   - hammer-on
 p   - pull-off
 b   - bend
 pb  - pre-bend
 r   - bend release (if no number after the r, then release immediately)
 /\  - slide into or out of (from/to "nowhere")
 s   - legato slide
 S   - shift slide
 - natural harmonic
[n]  - artificial harmonic
n(n) - tapped harmonic
 ~   - vibrato
 tr  - trill
 T   - tap
 TP  - trem. picking
 PM  - palm muting
\n/  - tremolo bar dip; n = amount to dip
 \n  - tremolo bar down
 n/  - tremolo bar up
/n\  - tremolo bar inverted dip
 =   - hold bend; also acts as connecting device for hammers/pulls
 <> - volume swell (louder/softer)
 x   - on rhythm slash represents muted slash
 o   - on rhythm slash represents single note slash

Misc Legend
-----------
 |  - bar
||  - double bar
||o - repeat start
o|| - repeat end
*|  - double bar (ending)
 :  - bar (freetime)
 $  - Segno
 &  - Coda
Tempo markers -  = BPM(8/16=s8/s16), where s8 = swing 8ths, s16 = swing 16ths

comments
We did not receive enough feedback on this tab! Please rate:
print report bad tab
1 2 3 4 5
I want to post or [tab]
guest
You may want to rate the tab now too:
select rating
Please do not post tabs as comments. Select "correction" instead!