Oops, an error
Loading. Please wait.

All Along The Watchtower Bass Tab

version 2
version 2
18,413 views 18 this week
4 commentsread comments
1 2 3 4 5
x 11
add to favorites
launch autoscroll
font size
0
reset
guitar tuner
×
Best way to learn
"All Along The Watchtower"
Autoscroll
slow
fast
+/-
esc
set tempo
stop
Original Composer: Bob Dylan
As Performed by: Jimi Hendrix
Song: All Along the Watchtower
Tuning: EADG
-------------
Main Riff

G-------------------|
D-------------------|
A-11-3333--11-------|
E--------------4444-|

Verse:

G----------|
D----------|
A--3-1-1---|
E-----4----|

After Intro/Solo/Chorus

G--5-5--3-3--1-1--3-3--|
D---5-5--3-3--1-1--3-3-|
A----------------------|
E----------------------|

-------------

Enjoy.
Suggest correction
comments
print report bad tab
4 comments total. Showing first comments.
-1 reply
AlexRibeiro333 10 Jul 31, 2014 01:36 PM

Lack of accuracy. Tab incomplete.

0 reply
davey.mc 10 Oct 14, 2014 12:31 PM

gets you playing along in no-time

0 reply
Bruno Frenchy 4,496 Jul 13, 2015 10:07 AM

Wahoo... This tab has been approved by UG ???

guest
You may want to rate the tab now too:
select rating
Wanna post a correction for this tab? Suggest correction