Oops, an error
Loading. Please wait.

All Along The Watchtower Tab

version 3
version 3

Whole song

Interactive

91,644 views 45 this week
30 commentsread comments
1 2 3 4 5
x 40
add to favorites
launch autoscroll
font size
0
reset
how to read this tab
guitar tuner
Autoscroll
slow
fast
+/-
esc
set tempo
stop
Help us to improve Ultimate-Guitar.com Take our survey!
×
Author
Tuning
D# G# C# F# A# D#
Damn this is hot.
Tabbed by ZososoZ.  Enjoy!

Guitar I

                                                                              
D#|------------------|------------------|------------------|------------------|
A#|------------------|------------------|------------------|------------------|
F#|------------------|------------------|------------------|------------------|
C#|------------------|------------------|------------------|------------------|
G#|------------------|------------------|------------------|------------------|
D#|------------------|------------------|------------------|------------------|

[Intro Solo]
                                                        
D#|------------------------|------------------------------|
A#|----------------12--14b-|--14b-14b-14b-----14r-12------|
F#|------------13----------|--------------------------13--|
C#|------------------------|------------------------------|
G#|------------------------|------------------------------|
D#|------------------------|------------------------------|

D#|--------------------------------|-----------------------------|
A#|--------------------------------|-----------------------------|
F#|--11--11--11----11/9-----9--11--|--11b-11--11b-----11r-9------|
C#|-------------------9/11---------|-------------------------11--|
G#|--------------------------------|-----------------------------|
D#|--------------------------------|-----------------------------|

D#|--------------------------|-----------------------------|
A#|--11h9----12b-------10b---|-----------------------------|
F#|-------9------------------|---------11h9----------------|
C#|--------------------------|--------------9--------------|
G#|--------------------------|-----11----------9-9--7-7----|
D#|--------------------------|--9--------------------------|

[Verse]
                                                     
D#|----------------------------|-----------------------|
A#|----------------------------|-------7h5-------------|
F#|----------------4h6h4-------|--------------------2--|
C#|------------4/6-------4--6--|-----------6--------2--|
G#|--------2h4-----------------|--4--------------------|
D#|----------------------------|-----------------------|

D#|----------------------------|------------------------|
A#|----------------------------|--------5h7h5-----------|
F#|---------2h4h2----4h6h4-----|------------------------|
C#|--2------------6---------6--|-----6------------------|
G#|----------------------------|--4---------------------|
D#|----------------------------|------------------------|

D#|--------------------------|------------------------|-----------------------|
A#|--------------------------|-------5----------------|--------------5/7/5----|
F#|-------------------2------|------------------4-----|--2-----------4--------|
C#|-------------2h4h2-2------|---------------4--------|--2--------6-----------|
G#|----------2-----------4h2-|--4---------2--------0--|-----------------------|
D#|--------------------------|------------------------|-----------------------|

D#|-------------------------|-------------------------|-------------------------|
A#|--------5----------------|-------------5--5/7/5----|------5------------------|
F#|--------6----------4--2--|--2----------4--4/6/4----|------4-6h4--------------|
C#|-----6----------4-----2--|--2------4/6-------------|--4h6---------6----------|
G#|--4----------2--------0--|--0----------------------|-------------------------|
D#|-------------------------|-------------------------|-------------------------|

D#|-----------------------|------------------|---------------------------|
A#|-----------------------|------------------|--------2h5h2--------------|
F#|---------------6~-4~---|------------------|--------------2-----4/6/4--|
C#|------------2----------|------------------|-----------------6---------|
G#|--------2h4------------|------------------|---------------------------|
D#|-----------------------|------------------|---------------------------|

D#|--------------------------|--------------9------|--9------------------------|
A#|--------5-----------------|-----------------12--|--12b-------12r-12-9---9---|
F#|--------6--------4-----2--|---------------------|------------12r-12-----11--|
C#|-----6-----6-----4--4--2--|---------------------|---------------------------|
G#|--4-----------2--------0--|---------------------|---------------------------|
D#|--------------------------|---------------------|---------------------------|

D#|-------------------------|-----------------------------|----------------------|
A#|-------------------------|---------12--14b-----14r-12--|--14b---------14b-----|
F#|--11r-----------11h9-----|--9--13--------------14r-----|----------------------|
C#|---------------------11--|-----------------------------|----------------------|
G#|-------------------------|-----------------------------|----------------------|
D#|-------------------------|-----------------------------|----------------------|

[Guitar Break]
                                                         
D#|--------------------------|-----------------------------|
A#|--14b-------14r---12--14--|--12b-12/-9---------------9--|
F#|--------------------------|-----------------9--11b------|
C#|--------------------------|-------------11--------------|
G#|--------------------------|-----------------------------|
D#|--------------------------|-----------------------------|

D#|--9------9-----------9-----------------|-------------------------|
A#|-----12b---12-9----9---12-9------------|-------------------------|
F#|----------------12----------12-11-9----|--11b---9h---9/---18/--0-|
C#|------------------------------------11-|-------------------------|
G#|---------------------------------------|-------------------------|
D#|---------------------------------------|-------------------------|

[Verse]
                                                                   
D#|------------------|----------------------|------------------------|
A#|------------------|----------------------|-------5h7h5------------|
F#|------------------|-----------4/-6/-4----|-------4-----4----------|
C#|------------------|--------6-------------|------------------------|
G#|------------------|----------------------|--7---------------------|
D#|------------------|----------------------|------------------------|

D#|------------------------|--------------------------|
A#|------------------------|-------5h7h5--------------|
F#|---------------6--4h-0--|-------------4------4-----|
C#|------------2-----------|----6------------------4--|
G#|--------2h4-------------|--------------------------|
D#|------------------------|--------------------------|

D#|----0------------------------|-------------------|---------------------|
A#|-------2---------------------|-------------------|---------------------|
F#|----------------4h6h4-----4--|-------------------|---------------------|
C#|----------4/-6--------4h6----|-------------------|---------------------|
G#|-----------------------------|-------------------|--9------------7-----|
D#|-----------------------------|-----------------9-|------------------7--|

D#|------------------|---------------------------|-----------------------|
A#|------------------|--------7h5--------5-------|-------5---------------|
F#|------------------|------------6------4-------|---------------4-------|
C#|------------------|---------------4h6----6/4--|-------6-------4-------|
G#|------------------|---------------------------|--4---------2-------0--|
D#|------------------|---------------------------|-----------------------|

D#|----------------------------|------------------------|
A#|-------------------5/7/5----|--------5----4----------|
F#|--2-------------4--4/6/4----|------------------4-----|
C#|--2------2--4/6-------------|-----6---------------2--|
G#|-----2h4--------------------|--4---------------------|
D#|----------------------------|------------------------|

D#|--5---------------------------|-----------------------|-----------------------|
A#|--5h7h5-----------------------|------5h7h5------------|-----------------------|
F#|---------4h-6--2-----4h6h4----|------------4----------|-----------4--6--4--4--|
C#|------------------6--------6--|-----------------------|--------6--------------|
G#|------------------------------|-----------------------|-----------------------|
D#|------------------------------|-----------------------|-----------------------|

D#|-------------------------------|----------9--9-9-9-9-9-9--|
A#|-------------------------------|----------12b-------------|
F#|--9-9-9--9---9/11-11/13--------|--------------------------|
C#|-------------------------11----|--------------------------|
G#|-------------------------------|--------------------------|
D#|-------------------------------|--------------------------|

D#|--9-------------------------|--------------------------|
A#|--12r--9-----9--------------|-----------------------9--|
F#|---------11-----11b-11b-----|--------11r--9-----11b----|
C#|----------------------------|---------------11---------|
G#|----------------------------|--------------------------|
D#|----------------------------|--------------------------|

D#|--9------12--14--14b-------|--14r-12--14--14b-14--12-------12-|
A#|-----14--------------------|--------------------------14------|
F#|---------------------------|----------------------------------|
C#|---------------------------|----------------------------------|
G#|---------------------------|----------------------------------|
D#|---------------------------|----------------------------------|

D#|------------------------|-------------------------------|--------------------|
A#|--14b-------14b-----14--|--14b-14--14b-14---------------|----------15/-------|
F#|------------------------|------------------13h---13/1---|----------15/-------|
C#|------------------------|-------------------------------|----------15/-------|
G#|------------------------|-------------------------------|--------------------|
D#|------------------------|-------------------------------|--------------------|

D#|--------------------|----------------------|-----------------------|
A#|--2~----------------|----------------------|-----------------------|
F#|--2~----------------|----------------------|----------------11~--9~|
C#|--2~-----------4/---|--11~-----------11/---|--14~------------------|
G#|--------------------|----------------------|-----------------------|
D#|--------------------|----------------------|-----------------------|

D#|----------------------|----------------------|-------------------------|
A#|--14~-----------11/---|--14~-----------------|-------------------------|
F#|----------------------|----------------11~---|--11/-13~-----11~---9~---|
C#|----------------11/---|--14~-----------------|-------------------------|
G#|--16~-----------------|----------------------|-------------------------|
D#|----------------------|----------------------|-------------------------|

D#|---------------------|--12-12-12/-14--14-14/16--16-16/19--19-19-|
A#|---------------------|------------------------------------------|
F#|--11/--0-------------|--9--9--9/--11--11-11/13--13-13/16--16-16-|
C#|---------------------|------------------------------------------|
G#|---------------------|------------------------------------------|
D#|---------------------|------------------------------------------|

D#|--19/--12----------------|--9----9-----------9----------------------|
A#|-----------------------9-|----12---12-9----9---12-9-----------------|
F#|--16/--9------------11b--|--------------11b---------11b11-9----9-11-|
C#|-------------------------|----------------------------------11------|
G#|-------------------------|------------------------------------------|
D#|-------------------------|------------------------------------------|

D#|----------------------|--9----9-11-9------9-11-9------9-11-9---|
A#|----------------12b---|----12b-------9-12--------9-12--------9-|
F#|--11b-----------------|----------------------------------------|
C#|----------------------|----------------------------------------|
G#|----------------------|----------------------------------------|
D#|----------------------|----------------------------------------|

D#|------9----9------9-------------------|--------9-------9~--------|
A#|--12b---12b-----9---12-9--------------|----12b-12b-12b-12b-------|
F#|-------------11b---------11b11-9h-11--|--------------------------|
C#|--------------------------------------|--------------------------|
G#|--------------------------------------|--------------------------|
D#|--------------------------------------|--------------------------|

D#|--11---11-11~-----------|--11--9-9-9-9-9-----7--9-7-7--|
A#|--14b--14b14b-----------|--9---9-9-9-9-9-----7--7-7-7--|
F#|------------------------|-----------------8------------|
C#|------------------------|------------------------------|
G#|------------------------|------------------------------|
D#|------------------------|------------------------------|

D#|-----5-----------------------------|---------11-9-9/-7-----9-7-7-7-|
A#|-----5--8-8-8-8/10-10-10-10-13/--0-|------9-------------7--7-7-7-7-|
F#|--6-----9-9-9-9/11-11-11-11-14/----|-----------------8--8--8-8-8-8-|
C#|-----------------------------------|--11---------------------------|
G#|-----------------------------------|-------------------------------|
D#|-----------------------------------|-------------------------------|

D#|-----5--5----------------------|------9--11-9-9-9----7--9-7-7--|
A#|-----5--5--x-x-x-x-x-x-x-x-x-x-|------9--9--9-9-9----7--7-7-7--|
F#|--6--------x-x-x-x-x-x-x-x-x-x-|------------------8------------|
C#|-------------------x-x-x-x-x-x-|--11---------------------------|
G#|-------------------------x-x-x-|-------------------------------|
D#|-------------------------------|-------------------------------|

D#|-----5------------------------0--|--9--9-9-9-9-9-9-11-11-11-11-12-12-12-12-12-|
A#|-----5--8-8-8-8/10-10/13/-x-x-0--|--12b------------14b---------15b------------|
F#|--6-----9-9-9-9/11-11/14/-x------|--------------------------------------------|
C#|---------------------------------|--------------------------------------------|
G#|---------------------------------|--------------------------------------------|
D#|---------------------------------|--------------------------------------------|

D#|--12-14-14-14-14-16-16-16-16h17h16h17h16h17-----|------------------|
A#|-----17b---------19b----------------------------|------------------|
F#|------------------------------------------------|------------------|
C#|------------------------------------------------|------------------|
G#|------------------------------------------------|------------------|
D#|------------------------------------------------|------------------|

D#|------------------|-------------------------|-------------------------|
A#|------------------|------7h5----------4-----|------5h7h-5----5/7/5----|
F#|------------------|----------4-----4-----4--|------6---------4/6/4----|
C#|------------------|-------------4-----------|-------------6-----------|
G#|------------------|-------------------------|-------------------------|
D#|------------------|-------------------------|-------------------------|

D#|--------------------------|------5-------------------|------------------------|
A#|--------------------------|------5h7-7-7----5/7/5----|------7h5---------------|
F#|------9-9--x--------------|----------6-6----4/6/4----|----------6-6---4--4----|
C#|------9-9--x----11--9-----|--------------6-----------|----------x-x------4----|
G#|-------------9---------9--|--------------------------|------------------------|
D#|--------------------------|--------------------------|------------------------|

D#|-----------------------|------7------------|----------------------|
A#|-----------------------|------9------------|------0------5/7/5----|
F#|-----------------------|-------------------|------6------4/6/4----|
C#|--4-4-4-4-4------------|-------------------|------7---------------|
G#|-----------------------|-------------------|----------------------|
D#|-----------------------|-------------------|----------------------|

D#|------------------------|------5---------------------|
A#|------7h5---------------|------5h7--------5/7/5------|
F#|-------------4----4-----|----------4h6----4/6/4----0-|
C#|----------6----------4--|--------------6---------6---|
G#|------------------------|----------------------------|
D#|------------------------|----------------------------|

D#|---------------------------|---------------------------x-|
A#|------7h5------------------|-------------------5/7/5---x-|
F#|------6---4h6-4-----4------|----------------4--4/6/4-----|
C#|-----------------4-----4-4-|--4h2-----2--6---------------|
G#|---------------------------|------2h4--------------------|
D#|---------------------------|-----------------------------|

D#|------------------------|--0-0-0-0-0--0-0-0-0-0-0-0-0-0-0-|
A#|------7h5---------------|--0-0-0-0-0--0-0-0-0-0-0-0-0-0-0-|
F#|------6---4--------4----|--6-6-6-6-6--6-6-6-6-6-6-6-6-----|
C#|----------------4-------|--7-7-7-7-7--7-7-7-7-7-7-7-7-----|
G#|-------------2----------|---------------------------------|
D#|------------------------|---------------------------------|

D#|--9----9--9---9---9-------9--9--|--9---9---9---9---9~--------|
A#|--12b--12b12b-12b-12b-----12b12b|--12b-12b-12b-12b-12b-------|
F#|--------------------------------|----------------------------|
C#|--------------------------------|----------------------------|
G#|--------------------------------|----------------------------|
D#|--------------------------------|----------------------------|

D#|----11--11--11--11--------|--11--12--11------11--------|
A#|----14b-14b-14b-14b-------|--14b---------14--14b-------|
F#|--------------------------|----------------------------|
C#|--------------------------|----------------------------|
G#|--------------------------|----------------------------|
D#|--------------------------|----------------------------|

D#|----9--9--9---9---9---------|--9--9--9---9---9---9---------|
A#|----12b12b12b-12b-12b-------|--12b12b12b-12b-12b-12b-------|
F#|----------------------------|------------------------------|
C#|----------------------------|------------------------------|
G#|----------------------------|------------------------------|
D#|----------------------------|------------------------------|

D#|----11-11-11-11-11-11-12-12-12-12-12-12-12~-|
A#|----14b14b14b14b14b14b15b15b15b15b15b15b15b-|
F#|--------------------------------------------|
C#|--------------------------------------------|
G#|--------------------------------------------|
D#|--------------------------------------------|

D#|--14-14-14-14-14-14-14~-16-16-16-16-16-16-16-16-|
A#|--17b17b17b17b17b17b17b-19b19b19b19b19b19b19b19b|
F#|------------------------------------------------|
C#|------------------------------------------------|
G#|------------------------------------------------|
D#|------------------------------------------------|

D#|--19b19b19b19b19b19b19b19b19b19b19b19b19b19b19b19b|
A#|--------------------------------------------------|
F#|--------------------------------------------------|
C#|--------------------------------------------------|
G#|--------------------------------------------------|
D#|--------------------------------------------------|
 
D#|--19b19b19b19b19b19b19b19b19b19b19b19b19b---|
A#|--------------------------------------------|
F#|--------------------------------------------|
C#|--------------------------------------------|
G#|--------------------------------------------|
D#|--------------------------------------------|

D#|--19b19b19b19b19b19b19b19b19b19b19b19b19b19b19b19b|
A#|--------------------------------------------------|
F#|--------------------------------------------------|
C#|--------------------------------------------------|
G#|--------------------------------------------------|
D#|--------------------------------------------------|

D#|--19b19b19b19b19b19b19b19b19b19b19b19b19b---|
A#|--------------------------------------------|
F#|--------------------------------------------|
C#|--------------------------------------------|
G#|--------------------------------------------|
D#|--------------------------------------------|

D#|--19b19b19b19b19b19b19b19b19b19b19b19b19b19b19b19b|
A#|--------------------------------------------------|
F#|--------------------------------------------------|
C#|--------------------------------------------------|
G#|--------------------------------------------------|
D#|--------------------------------------------------|

D#|--19b19b19b19b19b19b19b19b19b19b19b19b19b19b19b19b|
A#|--------------------------------------------------|
F#|--------------------------------------------------|
C#|--------------------------------------------------|
G#|--------------------------------------------------|
D#|--------------------------------------------------|

D#|--19b19b19b19b19b19b19b19b19b19b19b19b19b19b19b19b|
A#|--------------------------------------------------|
F#|--------------------------------------------------|
C#|--------------------------------------------------|
G#|--------------------------------------------------|
D#|--------------------------------------------------|

D#|--19b19b19b19b19b-19b-19b19b19b19b19b19b19b19b||
A#|----------------------------------------------||
F#|----------------------------------------------||
C#|----------------------------------------------||
G#|----------------------------------------------||
D#|----------------------------------------------||


Guitar II

D#|------------7--7--9---|--9---9---9-------7--7--5--|
A#|------------7--7--9---|--9---9---9-------7--7--5--|
F#|------------8--8--9---|--9---9---9-------8--8--6--|
C#|------------9--9--11--|--11--11--11------9--9--7--|
G#|------------9--9--11--|--11--11--11------9--9--7--|
D#|------------7--7--9---|--9---9---9-------7--7--5--|

D#|--5--5--5------7--7--9---|--9---9---9--------7--7--5--|
A#|--5--5--5------7--7--9---|--9---9---9--------7--7--5--|
F#|--6--6--6------8--8--9---|--9---9---9-----9--8--8--6--|
C#|--7--7--7------9--9--11--|--11--11--11-------9--9--7--|
G#|--7--7--7------9--9--11--|--11--11--11-------9--9--7--|
D#|--5--5--5------7--7--9---|--9---9---9--------7--7--5--|

D#|--5--5--5--5-5-5-5-7--7--7/8--|--9---9---9---x-7-7--7--7--x-x-|
A#|--5--5--5--5-5-5-5-7--7--7/8--|--9---9---9---x-7-7--7--7--x-x-|
F#|--6--6--6--6-6-6-6-8--8--8/9--|--9---9---9---x-8-8--8--8--x-x-|
C#|--7--7--7--7-7-7-7-9--9--9/10-|--11--11--11--x-9-9--9--9--x-x-|
G#|--7--7--7--7-7-7-7-9--9--9/10-|--11--11--11--x-9-9--9--9--x-x-|
D#|--5--5--5--5-5-5-5-7--7--7/8--|--9---9---9---x-7-7--7--7--x-x-|

D#|--5--5--5---x-7--7--7--7-7-|--9---9---9---x-7-7-7-7--7--x--|
A#|--5--5--5---x-7--7--7--7-7-|--9---9---9---x-7-7-7-7--7--x--|
F#|--6--6--6---x-8--8--8--8-8-|--9---9---9---x-8-8-8-8--8--x--|
C#|--7--7--7---x-9--9--9--9-9-|--11--11--11--x-9-9-9-9--9--x--|
G#|--7--7--7---x-9--9--9--9-9-|--11--11--11--x-9-9-9-9--9--x--|
D#|--5--5--5---x-7--7--7--7-7-|--9---9---9---x-7-7-7-7--7--x--|

D#|--5--5--5--x-7-7-7-7--7--8---|--0~-----------------|-------------------0--|
A#|--5--5--5--x-7-7-7-7--7--8---|--5~-------4------x--|--2~---------4--4--5--|
F#|--6--6--6--x-8-8-8-8--8--9---|--6~-------4------x--|--2~---------4--4--6--|
C#|--7--7--7--x-9-9-9-9--9--10--|--6~-------4------x--|--2~---------4--4--6--|
G#|--7--7--7--x-9-9-9-9--9--10--|--4~-------2------x--|--4~---------2--2--4--|
D#|--5--5--5--x-7-7-7-7--7--8---|---------------------|----------------------|

D#|--0-----------------|-------------0--0-----|--0~----------------|
A#|--5--------4--------|--2----------0--0--x--|--5~-------4~-------|
F#|--6--------4--------|--2----------4--4--x--|--6~-------4~-------|
C#|--6--------4--------|--2----------4--4--x--|--6~-------4~-------|
G#|--4--------2--------|--4----------2--2--x--|--4~-------2~-------|
D#|--------------------|----------------------|--------------------|

D#|---------------------0--|--0--------------------|-------------------------|
A#|--2~-------x-x-4--4--5--|--5----------4--4--2-2-|--2----------------------|
F#|--2~-------x-x-4--4--6--|--6----------4--4--2-2-|--2----------9--------9--|
C#|--2~-------x-x-4--4--6--|--6----------4--4--2-2-|--2----------9--11/13-9--|
G#|--4~-------x-x-2--2--4--|--4----------2--2--4-4-|--4-------------9/-11----|
D#|------------------------|-----------------------|-------------------------|

D#|--0-----------------|---------------------0-0-|--0-----------------|
A#|--5--------4--------|--2--------x-x-4--4--5-5-|--5--------4--------|
F#|--6--------4--------|--2--------x-x-4--4--6-6-|--6--------4--------|
C#|--6--------4--------|--2--------x-x-4--4--6-6-|--6--------4--------|
G#|--4--------2--------|--4--------x-x-2--2--4-4-|--4--------2--------|
D#|--------------------|-------------------------|--------------------|

D#|-------------2--2------|--0-----------------|-------0-0---------------|
A#|--2----------4--4--x-x-|--5--------4--------|--2----2-2-----4--4-4-4--|
F#|--2----------4--4--x-x-|--6--------4--------|--2----2-2-----4--4-4-4--|
C#|--2----------4--4--x-x-|--6--------4--------|--2----2-2-----4--4-4-4--|
G#|--4----------2--2--x-x-|--4--------2--------|--4----0-0-----2--2-2-2--|
D#|-----------------------|--------------------|-------------------------|

D#|--0-------------------|--------------------------------|
A#|--5--------4----4--2--|----2-----2-----2-x--2-2-2-2-2--|
F#|--6--------4----4--2--|----2-----2-----2-x--2-2-2-2-2--|
C#|--6--------4----4--2--|--6-2-6-6-2-6-6-2-x--2-2-2-2-2--|
G#|--4--------2----2-----|--4-4-4-4-4-4-4-4-x--4-4-4-4-4--|
D#|----------------------|--------------------------------|

D#|--0--0--0--0-0--------------|------------------------0-0-|
A#|--5--5--5--5-5-4--4--4--x-x-|--2----2--x-x-4-4-4--4--5-5-|
F#|--6--6--6--6-6-4--4--4--x-x-|--2----2--x-x-4-4-4--4--6-6-|
C#|--6--6--6--6-6-4--4--4--x-x-|--2----2--x-x-4-4-4--4--6-6-|
G#|--4--4--4--4-4-2--2--2--x-x-|--4----4--x-x-2-2-2--2--4-4-|
D#|----------------------------|----------------------------|

D#|--0----0--0-0---------------|---------------------------0-|
A#|--5----5--5-5-4-4-4--4--2-2-|--2----2--x-x-4-4-4-4-4--x-5-|
F#|--6----6--6-6-4-4-4--4--2-2-|--2----2--x-x-4-4-4-4-4--x-6-|
C#|--6----6--6-6-4-4-4--4--2-2-|--2----2--x-x-4-4-4-4-4--x-6-|
G#|--4----4--4-4-2-2-2--2------|--4----4--x-x-2-2-2-2-2--x-4-|
D#|----------------------------|-----------------------------|

D#|--0--0--0--------------------|---------------------------0-|
A#|--5--5--5--x-x-4-4-4--4--4-4-|--2--2--2--x-x-4-4-4--4--x-5-|
F#|--6--6--6--x-x-4-4-4--4--4-4-|--2--2--2--x-x-4-4-4--4--x-6-|
C#|--6--6--6--x-x-4-4-4--4--4-4-|--2--2--2--x-x-4-4-4--4--x-6-|
G#|--4--4--4--x-x-2-2-2--2--2-2-|--4--4--4--x-x-2-2-2--2--x-4-|
D#|-----------------------------|-----------------------------|

D#|--0--0--0-------------------|---------------------------|--0-----------------|
A#|--5--5--5--x-x-x--4--4--x-x-|--2----2--x-4-4--4--4-4-4--|--5--------4--------|
F#|--6--6--6--x-x-x--4--4--x-x-|--2----2--x-4-4--4--4-4-4--|--6--------4--------|
C#|--6--6--6--x-x-x--4--4--x-x-|--2----2--x-4-4--4--4-4-4--|--6--------4--------|
G#|--4--4--4--x-x-x--2--2--x-x-|--4----4--x-2-2--2--2-2-2--|--4--------2--------|
D#|----------------------------|---------------------------|--------------------|

D#|----------------------|--0-----------------|----------------------|
A#|--2----------4--4--x--|--5--------4--------|--2----------4--4--4--|
F#|--2----------4--4--x--|--6--------4--------|--2----------4--4--4--|
C#|--2----------4--4--x--|--6--------4--------|--2----------4--4--4--|
G#|--4----------2--2--x--|--4--------2--------|--4----------2--2--2--|
D#|----------------------|--------------------|----------------------|

D#|--0-----------------|----------------------|--0-----------------|
A#|--5--------4--------|--2----------4--4--4--|--5--------4--------|
F#|--6--------4--------|--2----------4--4--4--|--6--------4--------|
C#|--6--------4--------|--2----------4--4--4--|--6--------4--------|
G#|--4--------2--------|--4----------2--2--2--|--4--------2--------|
D#|--------------------|----------------------|--------------------|

D#|-----------------------|--0-----------------|------------------------|
A#|--2----------4-4-4--x--|--5--------4--------|--2--------x--4-4-4--x--|
F#|--2----------4-4-4--x--|--6--------4--------|--2--------x--4-4-4--x--|
C#|--2----------4-4-4--x--|--6--------4--------|--2--------x--4-4-4--x--|
G#|--4----------2-2-2--x--|--4--------2--------|--4--------x--2-2-2--x--|
D#|-----------------------|--------------------|------------------------|

D#|--0-----------------|-----------------------|--0-----------------|
A#|--5--------4--------|--2----------4-4-4--x--|--5--------4--------|
F#|--6--------4--------|--2----------4-4-4--x--|--6--------4--------|
C#|--6--------4--------|--2----------4-4-4--x--|--6--------4--------|
G#|--4--------2--------|--4----------2-2-2--x--|--4--------2--------|
D#|--------------------|-----------------------|--------------------|

D#|-------------------0-0-|--0-----------------|-----------------------|
A#|--2----------4--4--5-5-|--5--------4--------|--2----------4--4--4-4-|
F#|--2----------4--4--6-6-|--6--------4--------|--2----------4--4--4-4-|
C#|--2----------4--4--6-6-|--6--------4--------|--2----------4--4--4-4-|
G#|--4----------2--2--4-4-|--4--------2--------|--4----------2--2--2-2-|
D#|-----------------------|--------------------|-----------------------|

D#|--0----0------------------|-----------------------------|
A#|--5----5--x-x---4--4--4-4-|--2--2-2-2--x-x-x-x-4--4--x--|
F#|--6----6--x-x---4--4--4-4-|--2--2-2-2--x-x-x-x-4--4--x--|
C#|--6----6--x-x---4--4--4-4-|--2--2-2-2--x-x-x-x-4--4--x--|
G#|--4----4--x-x---2--2--2-2-|--4--4-4-4--x-x-x-x-2--2--x--|
D#|--------------------------|-----------------------------|

D#|--0----0-----------------|---------------------------0-|
A#|--5----5----4--4--4--x-2-|--2--2--2--x-x-4-4-4--4--x-5-|
F#|--6----6----4--4--4--x-2-|--2--2--2--x-x-4-4-4--4--x-6-|
C#|--6----6----4--4--4--x-2-|--2--2--2--x-x-4-4-4--4--x-6-|
G#|--4----4----2--2--2--x-4-|--4--4--4--x-x-2-2-2--2--x-4-|
D#|-------------------------|-----------------------------|

D#|--0--0--0--------------------|---------------------------0-|
A#|--5--5--5--x-4-4-4-4--4--x-x-|--2--2--2--x-x-4-4-4--4--x-5-|
F#|--6--6--6--x-4-4-4-4--4--x-x-|--2--2--2--x-x-4-4-4--4--x-6-|
C#|--6--6--6--x-4-4-4-4--4--x-x-|--2--2--2--x-x-4-4-4--4--x-6-|
G#|--4--4--4--x-2-2-2-2--2--x-x-|--4--4--4--x-x-2-2-2--2--x-4-|
D#|-----------------------------|-----------------------------|

D#|--0--0--0--0-0---------------|----------------------------|--0-----------------|
A#|--5--5--5--5-5-4--4-4-4--x-x-|--2-2-2--2--x-x-x-4-4--4----|--5--------4--------|
F#|--6--6--6--6-6-4--4-4-4--x-x-|--2-2-2--2--x-x-x-4-4--4----|--6--------4--------|
C#|--6--6--6--6-6-4--4-4-4--x-x-|--2-2-2--2--x-x-x-4-4--4----|--6--------4--------|
G#|--4--4--4--4-4-2--2-2-2--x-x-|--4-4-4--4--x-x-x-2-2--2----|--4--------2--------|
D#|-----------------------------|----------------------------|--------------------|

D#|-------------------------|--0-----------------|----------------------|
A#|--2--2-2-2------4-4-4----|--5--------4--------|--2---------4-4--4----|
F#|--2--2-2-2------4-4-4----|--6--------4--------|--2---------4-4--4----|
C#|--2--2-2-2------4-4-4----|--6--------4--------|--2---------4-4--4----|
G#|--4--4-4-4------2-2-2----|--4--------2--------|--4---------2-2--2----|
D#|-------------------------|--------------------|----------------------|

D#|--0-----------------|------------------------|--0-----------------|
A#|--5--------4--------|--2----2--2-2---4--4----|--5--------4--------|
F#|--6--------4--------|--2----2--2-2---4--4----|--6--------4--------|
C#|--6--------4--------|--2----2--2-2---4--4----|--6--------4--------|
G#|--4--------2--------|--4----4--4-4---2--2----|--4--------2--------|
D#|--------------------|------------------------|--------------------|
 
D#|---------------------------|--0-----------------|---------------------------|
A#|--2----2---4-4--4-4-4-4-4--|--5--------4--------|--2--------x-x-4-4-4-4-4-x-|
F#|--2----2---4-4--4-4-4-4-4--|--6--------4--------|--2--------x-x-4-4-4-4-4-x-|
C#|--2----2---4-4--4-4-4-4-4--|--6--------4--------|--2--------x-x-4-4-4-4-4-x-|
G#|--4----4---2-2--2-2-2-2-2--|--4--------2--------|--4--------x-x-2-2-2-2-2-x-|
D#|---------------------------|--------------------|---------------------------|

D#|--0-----------------|-----------------------|--0-----------------|
A#|--5--------4--------|--2----------4-4-4--4--|--5--------4--------|
F#|--6--------4--------|--2----------4-4-4--4--|--6--------4--------|
C#|--6--------4--------|--2----------4-4-4--4--|--6--------4--------|
G#|--4--------2--------|--4----------2-2-2--2--|--4--------2--------|
D#|--------------------|-----------------------|--------------------|

D#|-----------------------|--0------------------|-----------------------------|
A#|--2----------4-4-4--4--|--5--------4----4----|--2-2--2-2--2-2-2--4-4-4--x--|
F#|--2----------4-4-4--4--|--6--------4----4----|--2-2--2-2--2-2-2--4-4-4--x--|
C#|--2----------4-4-4--4--|--6--------4----4----|--2-2--2-2--2-2-2--4-4-4--x--|
G#|--4----------2-2-2--2--|--4--------2----2----|--4-4--4-4--4-4-4--2-2-2--x--|
D#|-----------------------|---------------------|-----------------------------|

D#|--0--0-0-0---------------------|-----------------------------|
A#|--5--5-5-5--x-4-4-4-4-4-4--x-x-|--2--2--2--2-2-4--4-4-4--x-x-|
F#|--6--6-6-6--x-4-4-4-4-4-4--x-x-|--2--2--2--2-2-4--4-4-4--x-x-|
C#|--6--6-6-6--x-4-4-4-4-4-4--x-x-|--2--2--2--2-2-4--4-4-4--x-x-|
G#|--4--4-4-4--x-2-2-2-2-2-2--x-x-|--4--4--4--4-4-2--2-2-2--x-x-|
D#|-------------------------------|-----------------------------|

D#|--0--0--0--0-0--------------|--------------------------0-0-|
A#|--5--5--5--5-5-4--4--4--4-4-|--2--2--2--x-4-4-4-4-4-4--5-5-|
F#|--6--6--6--6-6-4--4--4--4-4-|--2--2--2--x-4-4-4-4-4-4--6-6-|
C#|--6--6--6--6-6-4--4--4--4-4-|--2--2--2--x-4-4-4-4-4-4--6-6-|
G#|--4--4--4--4-4-2--2--2--2-2-|--4--4--4--x-2-2-2-2-2-2--4-4-|
D#|----------------------------|------------------------------|

D#|--0--0--0--0-0---------------|-----------------------------|
A#|--5--5--5--5-5-4--4-4-4--2-2-|--2--2--2--2-2-4-4-4--4--x-x-|
F#|--6--6--6--6-6-4--4-4-4--2-2-|--2--2--2--2-2-4-4-4--4--x-x-|
C#|--6--6--6--6-6-4--4-4-4--2-2-|--2--2--2--2-2-4-4-4--4--x-x-|
G#|--4--4--4--4-4-2--2-2-2------|--4--4--4--4-4-2-2-2--2--x-x-|
D#|-----------------------------|-----------------------------|

D#|--0--0--0-0------------------|-----------------------------|
A#|--5--5--5-5--4-4--4-4-4--4-4-|--2--2--2-2---4-4-4-4-4-4-x--|
F#|--6--6--6-6--4-4--4-4-4--4-4-|--2--2--2-2---4-4-4-4-4-4-x--|
C#|--6--6--6-6--4-4--4-4-4--4-4-|--2--2--2-2---4-4-4-4-4-4-x--|
G#|--4--4--4-4--2-2--2-2-2--2-2-|--4--4--4-4---2-2-2-2-2-2-x--|
D#|-----------------------------|-----------------------------|

D#|--0------------------|-----------------------|--0-----------------|
A#|--5--------4--4------|--2----------4-4-4-----|--5--------4--------|
F#|--6--------4--4------|--2----------4-4-4--x--|--6--------4--------|
C#|--6--------4--4------|--2----------4-4-4--6--|--6--------4--------|
G#|--4--------2--2------|--4----------2-2-2--4--|--4--------2--------|
D#|---------------------|-----------------------|--------------------|
 
D#|-----------------------|--0-----------------|-----------------------|
A#|--2----------4-4-4-----|--5--------4--------|--2----------4-4-4-----|
F#|--2----------4-4-4--x--|--6--------4--------|--2----------4-4-4--x--|
C#|--2----------4-4-4--6--|--6--------4--------|--2----------4-4-4--6--|
G#|--4----------2-2-2--4--|--4--------2--------|--4----------2-2-2--4--|
D#|-----------------------|--------------------|-----------------------|

D#|--0-----------------|-----------------------|--0-----------------|
A#|--5--------4--------|--2----------4-4-4-----|--5--------4--------|
F#|--6--------4--------|--2----------4-4-4--x--|--6--------4--------|
C#|--6--------4--------|--2----------4-4-4--6--|--6--------4--------|
G#|--4--------2--------|--4----------2-2-2--4--|--4--------2--------|
D#|--------------------|-----------------------|--------------------|

D#|-------------------------|--0-----------------|-----------------------|
A#|--2----------x-4-4-4-----|--5--------4--------|--2----------4-4-4-----|
F#|--2--------x-x-4-4-4--x--|--6--------4--------|--2----------4-4-4--x--|
C#|--2--------x-x-4-4-4--6--|--6--------4--------|--2----------4-4-4--6--|
G#|--4--------x-x-2-2-2--4--|--4--------2--------|--4----------2-2-2--4--|
D#|-------------------------|--------------------|-----------------------|

D#|--0-----------------|----------------------|--0-----------------|
A#|--5--------4--------|--2----------4-4-4----|--5--------4--------|
F#|--6--------4--------|--2----------4-4-4----|--6--------4--------|
C#|--6--------4--------|--2----------4-4-4----|--6--------4--------|
G#|--4--------2--------|--4----------2-2-2----|--4--------2--------|
D#|--------------------|----------------------|--------------------|

D#|--------------------------------|-----------------------------|
A#|----2-----2-----2-x-4-4--4-4-4--|--5--5--5--x-4-4-4-4--4--x-2-|
F#|--x-2-x-x-2-x-x-2-x-4-4--4-4-4--|--4--4--4--x-4-4-4-4--4--x-2-|
C#|--6-2-6-6-2-6-6-2-x-4-4--4-4-4--|--6--6--6--x-4-4-4-4--4--x-2-|
G#|--4-4-4-4-4-4-4-4-x-2-2--2-2-2--|--4--4--4--x-2-2-2-2--2--x-4-|
D#|--x---x-x---x-x-----------------|-----------------------------|

D#|----------------------------|---------------------------|
A#|--2--2--2--x-x-2--2--2--5-5-|--5----5----5-5-5-5-5--5-5-|
F#|--2--2--2--x-x-2--2--2--4-4-|--4----4----4-4-4-4-4--4-4-|
C#|--2--2--2--x-x-2--2--2--6-6-|--6----6----6-6-6-6-6--6-6-|
G#|--4--4--4--x-x-4--4--4--4-4-|--4----4----x-x-x-x-x--x-x-|
D#|----------------------------|---------------------------|

D#|----------------------------|---------------------------|
A#|--x--2--2----x-x-x-x-x-x-x--|----5--5----5-5-5-5-5-5-5--|
F#|--x--2--2----4-4-4-4-4-4-4--|----4--4----4-4-4-4-4-4-4--|
C#|--x--2--2----6-6-6-6-6-6-6--|----6--6----6-6-6-6-6-6-6--|
G#|--x--4--4----x-x-x-x-x-x-x--|----4--4----x-x-x-x-x-x-x--|
D#|----------------------------|---------------------------|

D#|-------------------------|---------------------------|-------------------------|
A#|----2--2------x-x-x-x-x--|----5--5----5-5-5-5-5-5-5--|----2--2------x-x-x-x-x--|
F#|----2--2------4-4-4-4-4--|----4--4----4-4-4-4-4-4-4--|----2--2------4-4-4-4-4--|
C#|----2--2------6-6-6-6-6--|----6--6----6-6-6-6-6-6-6--|----2--2------6-6-6-6-6--|
G#|----4--4------x-x-x-x-x--|----4--4----x-x-x-x-x-x-x--|----4--4------x-x-x-x-x--|
D#|-------------------------|---------------------------|-------------------------|

D#|----------------------------|-----------------------------|
A#|----5--5-5--5-5--5-5-5-5-4--|--2--2--2-2-2----x-x-x-x-x-x-|
F#|----4--4-4--4-4--4-4-4-4-4--|--2--2--2-2-2----4-4-4-4-4-4-|
C#|----6--6-6--6-6--6-6-6-6-4--|--2--2--2-2-2----6-6-6-6-6-6-|
G#|----4--4-4--4-4--x-x-x-x-2--|--4--4--4-4-4----x-x-x-x-x-x-|
D#|----------------------------|-----------------------------|

D#|----------------------------|-----------------------------|
A#|----5--5--5-5-5--5-5-5-5-5--|----2--2--x-x-x-x-x-x-x-x-x--|
F#|----4--4--4-4-4--4-4-4-4-4--|----2--2--x-x-4-4-4-4-4-4-4--|
C#|----6--6--6-6-6--6-6-6-6-6--|----2--2--x-x-6-6-6-6-6-6-6--|
G#|----4--4--4-4-4--x-x-x-x-x--|----4--4--x-x-x-x-x-x-x-x-x--|
D#|----------------------------|-----------------------------|

D#|---------------------------|--------------------------|
A#|--5----5--5-5---x-x-x-x-x--|--2--2--2------x-x-x-x-x--|
F#|--4----4--4-4---4-4-4-4-4--|--2--2--2------4-4-4-4-4--|
C#|--6----6--6-6---6-6-6-6-6--|--2--2--2------6-6-6-6-6--|
G#|--4----4--4-4---x-x-x-x-x--|--4--4--4------x-x-x-x-x--|
D#|---------------------------|--------------------------|

D#|-----------------------------|--------------------------||
A#|--5--5--5--x-5-5--5-5-5-5-5--|--2--2--2------x-x-x-x-x--||
F#|--4--4--4--x-4-4--4-4-4-4-4--|--2--2--2------4-4-4-4-4--||
C#|--6--6--6--x-6-6--6-6-6-6-6--|--2--2--2------6-6-6-6-6--||
G#|--4--4--4--x-4-4--x-x-x-x-x--|--4--4--4------x-x-x-x-x--||
D#|-----------------------------|--------------------------||



************************************

| r  Release
| b  Bend
| /  Slide up
| h  Hammer-on
| ~  Vibrato
| x  Dead note

************************************
Suggest correction
comments
print report bad tab
30 comments total. Showing first comments.
+1 reply
handyandy 30 Feb 19, 2004 12:00 AM

HEy man I just wanted to say exelent job on the intro solo
It's better than the other guys!

+1 reply
afifury69 40 Mar 15, 2004 12:00 AM

lyrics under the tab would help out so much

0 reply
borninamoshpit_ 10 Jul 31, 2004 12:00 AM

holly *** masn, it must of took you like a half a day to rite this all down, sick ass tab, really good job oon the intro solo, keep up the good work

guest
You may want to rate the tab now too:
select rating
Wanna post a correction for this tab? Suggest correction