Oops, an error
Loading. Please wait.

Angel Tab

version 1
version 1

Acoustic

Interactive

25,925 views 18 this week
5 commentsread comments
1 2 3 4 5
excellent!
x 3
add to favorites
launch autoscroll
font size
0
reset
how to read this tab
guitar tuner
Autoscroll
slow
fast
+/-
esc
set tempo
stop
Help us to improve Ultimate-Guitar.com Take our survey!
×
Author
-----------------------------------------------------------------
Angel(hotel recording) - Jimi Hendrix
-----------------------------------------------------------------
Tabbed by:Brendan Simard
Email:links135@hotmail.com
Tuning:E flat(doesn't really matter)

version in question: http://www.youtube.com/watch?v=t-4NuPDpvgc

note: the guitar hendrix actually uses isn't an acoustic in the recoding 
like the youtube video title says and there's proof of this in the sound
and when he changes the pickup in the middle of the song immediately before 
that little solo

comment with any errors or corrections

intro

for the thicker E string play every single note with your thumb (so you 
shouldn't really play the a string with chords)

E|2--------------2-------2-------2-------------------------------|
B|3---3h4-3------3-------0--------------------------4------------|
G|4---4----4-----4-------1--------------------------4------------|
D|4----------4---4-------2-----------------4/6\4----4------------|
A|x--------------x-------2-------------4/6-------6--2------------|
E|2------------2-2-2-2-2-0---0------0----------------------------|

E|---------------------------------------------------------------|
B|---------------------------------------------------------------|
G|---------------------------------------------------------------|
D|------4-6/8-6-4-------4-7-4--4---------------------------------|
A|--4/6-----------6-5---------5--5/7-7---------------------------|
E|---------------------------------------------------------------|

verse

make these chords staccato

E|----2------------------x-------------------------------2r------|
B|----3---------6--------x--------------------4----------0r------|
G|----4---------6--------x--------------------4----------1r------|
D|----4---------6--------x--------------------4----------2r------|
A|----------4-----4-6---------4-6-4--------2-----2-4-------------|
E|2-----4-6------------4------------5-4-2--------------0---------|

     ending 1           			ending 2

E|--------2r---------------|-------2r-----0r---------------------|
B|--------2r---------------|-------2r-----0r---------------------|
G|--------3r---------------|-------3r-----1r---------------------|
D|--------4r---------------|-------4r-----2r---------------------|
A|-------------------4-6---|-------------------------------------|
E|-0-2-2--------4-6------5-|----2-------2-0----------------------|

pre-chorus

legato

E|---------------------------------------------------------------|
B|-----4-------7-----7--------2------------4h7p4-4-------6h9p6-6-|
G|-----4-------7-----6--------3h4p3--------4h7p4-4-------6h9p6-6-|
D|-----4-------7---4--------4--------------4------------6--------|
A|---2-------5-----4---------------------------------------------|
E|--------0---------------2----------2/4-4--------4/6-6----------|

				this should be the same note 	
E|-------7-7-7-7-7-7---------7---7---7---7---7---7---7---7-------|
B|-------7-7-7-7-7-7---------10b-10b-10b-10b-10b-10b-10b-10b-----|
G|-------8-8-8-8-8-8---------------------------------------------|
D|-------9-9-9-9-9-9---------------------------------------------|
A|---------------------------------------------------------------|
E|-7-7---7-7-7-7-7-7---------------------------------------------|

chorus

E|--0------------0-0---------------------------------------------|
B|----0----------0-0----5--5-5-5---5-5-5-5-5--5-5-5-5------------|
G|----2-1h2p1----1-1----2--2-2-2---2-2-2-2-2--2-2-2-2------------|
D|----2-2--------2-2----4--4-4-4---4-4-4-4-4--4-4-4-4------------|
A|----2----------2-2----4--4-4-4---4-4-4-4-4--4-4-4-4------------|
E|0----------0-0-0-0-0--0--0-0-0---0-0-2-0-2---------------------|
	     			                        

---------------------ending 1  -------------------ending 2
E|-----------------|--------------------------|0-0-0-0-0-0-0-0---|
B|-5-5--3-3-7-7-8-8|-9-9-9-9-9-9--------------|0-0-0-0-0-0-0-0---|
G|-5-5--4-4-7-7-8-8|-9-9-9-9-9-9--------------|1-1-1-1-1-1-1-1---|
D|-5-5--5-5-7-7-8-8|-9-9-9-9-9-9--------------|2-2-2-2-2-2-2-2---|
A|-3-3------5-5-6-6|-7-7-7-7-7-7-----7-9-7----|2-2-2-2-2-2-2-2---|  
E|------3-3--------|-------------7-9-------9-7|0-0-0-0-0-0-0-0-0-|

	solo thingy 

        change pickup

hold the open E for a ringing effect

E|----------------------------------------------------------------|
B|-----5--2----------------------------7-4h7p4-----4h7p4----------|
G|-----2--2h4p2-----2h4p2--------------4-4-----4---4-----4------4-|
D|-----4--------2-4--------4-2----2----6---------4--------4----4--|
A|-----4-----------------------2-4-----6---------------------6----|
E|-----0-------------------------------0--------------------------|



E|---------------------------------------------------------------|
B|---------------------------------------------------------------|
G|---------------------------------------------------------------|
D|--7-7---7-9-9---9-11r------------------------------------------|
A|--7-7---7-9-9---9-11r------------4-6-4-------------------------|
E|--5-5---5-7-7---7-9r-------------------6-----------------------|

start form the verse again except hold the notes for the verse

except play this instead of the bending part

E|-------7-7-7-7-7-7---------7--7--7--7--7--7--7--7--------------|
B|-------7-7-7-7-7-7---------10-10-10-10-10-10-10-10-------------|
G|-------8-8-8-8-8-8---------9--9--9--9--9--9--9--9--------------|
D|-------9-9-9-9-9-9---------7--7--7--7--7--7--7--7--------------|
A|---------------------------------------------------------------|
E|-7-7---7-7-7-7-7-7---------------------------------------------|



Tablature Notation

h - hammer on 
p - pull off 
b - bend string up
r - ring(hold notes)
/ - slide up
\ - slide down
v - vibrato (or ~)
t - right hand tap
x - play 'note' with heavy muting
Suggest correction
What's this?
You can suggest a correction to this tab. Community and Mods will review your correction and vote to approve or reject it.
comments
We did not receive enough feedback on this tab! Please rate:
print report bad tab
1 2 3 4 5
5 comments total. Showing first comments.
0 reply
NativeClan 38 wrote on July 9 2010, 05:49 pm


From the 1968 A.D. Part Two Album with Just Jimi and his guitar no band
Tab at bottom of page

Intro
F# E B D

F# C# G#
Angel came down from heaven yesterday
B E F#
She stayed with me just long enough for afternoon tea
F# C# G#
And she told me a story yesterday,
B E F# E
about the love between the moon, and the deep blue sea
B D F#
And when it was time for her to go, she spread her wings high over me
G#m A#m B
then she said "I shall return tomorrow"

B---------------
And I said

E F#m
"fly on my sweet angel,
B# B D D# E
fly on through the sky,
E F#m
fly on my sweet angel,
B# B D D# E
tomorrow I'll be by your side"
B# B D D# E

E G D D# E
A B A B C#

F# C# G#
And sure enough. this morning comes to me
B E F#
with Silver wings silhouetted against the glow of the child sunrise
F# C# G#
and as the bluebirds and sparrows envy me
B E F# E
She says "I love you litte boy, and today you shall fly"
B D F#
She kissed me once and the feeling so good she made me cry
G#m A#m B
and now we can fly together

And I said

E F#m
"fly on my sweet angel,
B# B D D# E
fly on through the sky,
E F#m
fly on my sweet angel,
B# B D D# E
Forever I'll be by your side"
B# B D D# E

Listen to the recording for timing. I focused mostly on the runs
between chords. The rest is just a roadmap

Intro

E|2--------------2-------2-------2-------------------------------|
B|2--------------3-------0--------------------------4------------|
G|3---3h4-3------4-------1--------------------------4------------|
D|4--------4-----4-------2----------------4-6-4-6-4-4------------|
A|4---------4----x-------2------------4/6-----------2------------|
E|2------------2-2-2-2-2-0---0------0----------------------------|

E|---------------------------------------------------------------|
B|------------------7--------------------------------------------|
G|------------------7--------------------------------------------|
D|------4-6/8-6-4---7--------------------------------------------|
A|2-4/6-----------6-5---------6p4--------------------------------|
E|-------------------------------6-2---(2 is back to f# chord)---|

verse

make these chords staccato
come down from hvn stayed enough
F# C# G# B E
E|----2------------------x-------------------------------2r------|
B|----2---------6--------x-----------------4--4----------0r------|
G|----3---------6--------5-----------------4--4----------1r------|
D|----4---------6--------6-----------------4--4----------2r------|
A|----4-----4-------6----6----4/6-4--------2-----2/4-----2r------|
E|2-----4/6------------4------------5-4-2--------------0---------|

Afternoon
ending 1 ending 2
F# F#| F# E
E|--------2r----------------|-------2r-----0r------------------|
B|--------2r----------------|-------2r-----0r------------------|
G|--------3r---------------3|-------3r-----1r------------------|
D|--------4r---------------4|-------4r-----2r------------------|
A|-------------------4-6---4|----------------------------------|
E|-0-2-2------224/6------5-2|----2-------2-0-------------------|

pre-chorus
Again not exact not for note just a roadmap of chords and runs

legato
B D F# G#m A#m
E|---------------------------------------------------------------|
B|-----4-------7-----7--------2------------4------------6--------|
G|-----4-------7-----6--------3h4p3--------4------------6--------|
D|-----4-------7---4--------4--------------6------------8--------|
A|---2-------5-----4-----------------------6------------8--------|
E|--------0---------------2----------2/4-4--------4/6-6----------|

B this should be the same note
E|-------7-7-7-7-7-7---------7---7---7---7---7---7---7---7-------|
B|-------7-7-7-7-7-7---------10b-10b-10b-10b-10b-10b-10b-10b-----|
G|-------8-8-8-8-8-8---------------------------------------------|
D|-------9-9-9-9-9-9---------------------------------------------|
A|---------------------------------------------------------------|
E|-7-7---7-7-7-7-7-7---------------------------------------------|

chorus
E F# or F#m Lift the index for a bass riff
E|--0------------0-0---------------------------------------------|
B|----0----------0-0----2--2-2-2---2-2-2-2-2--2-2-2-2------------|
G|----2-1h2p1----1-1----2--2-2-2---2-2-2-2-2--2-2-2-2------------|
D|----2-2--------2-2----4--4-4-

0 reply
NativeClan 38 wrote on July 9 2010, 05:52 pm


The last post cut off the tab correction
Intro

E|2--------------2-------2-------2-------------------------------|
B|2--------------3-------0--------------------------4------------|
G|3---3h4-3------4-------1--------------------------4------------|
D|4--------4-----4-------2----------------4-6-4-6-4-4------------|
A|4---------4----x-------2------------4/6-----------2------------|
E|2------------2-2-2-2-2-0---0------0----------------------------|

E|---------------------------------------------------------------|
B|------------------7--------------------------------------------|
G|------------------7--------------------------------------------|
D|------4-6/8-6-4---7--------------------------------------------|
A|2-4/6-----------6-5---------6p4--------------------------------|
E|-------------------------------6-2---(2 is back to f# chord)---|

verse

make these chords staccato
come down from hvn stayed enough
F# C# G# B E
E|----2------------------x-------------------------------2r------|
B|----2---------6--------x-----------------4--4----------0r------|
G|----3---------6--------5-----------------4--4----------1r------|
D|----4---------6--------6-----------------4--4----------2r------|
A|----4-----4-------6----6----4/6-4--------2-----2/4-----2r------|
E|2-----4/6------------4------------5-4-2--------------0---------|

Afternoon
ending 1 ending 2
F# F#| F# E
E|--------2r----------------|-------2r-----0r------------------|
B|--------2r----------------|-------2r-----0r------------------|
G|--------3r---------------3|-------3r-----1r------------------|
D|--------4r---------------4|-------4r-----2r------------------|
A|-------------------4-6---4|----------------------------------|
E|-0-2-2------224/6------5-2|----2-------2-0-------------------|

pre-chorus
Again not exact not for note just a roadmap of chords and runs

legato
B D F# G#m A#m
E|---------------------------------------------------------------|
B|-----4-------7-----7--------2------------4------------6--------|
G|-----4-------7-----6--------3h4p3--------4------------6--------|
D|-----4-------7---4--------4--------------6------------8--------|
A|---2-------5-----4-----------------------6------------8--------|
E|--------0---------------2----------2/4-4--------4/6-6----------|

B this should be the same note
E|-------7-7-7-7-7-7---------7---7---7---7---7---7---7---7-------|
B|-------7-7-7-7-7-7---------10b-10b-10b-10b-10b-10b-10b-10b-----|
G|-------8-8-8-8-8-8---------------------------------------------|
D|-------9-9-9-9-9-9---------------------------------------------|
A|---------------------------------------------------------------|
E|-7-7---7-7-7-7-7-7---------------------------------------------|

chorus
E F# or F#m Lift the index for a bass riff
E|--0------------0-0---------------------------------------------|
B|----0----------0-0----2--2-2-2---2-2-2-2-2--2-2-2-2------------|
G|----2-1h2p1----1-1----2--2-2-2---2-2-2-2-2--2-2-2-2------------|
D|----2-2--------2-2----4--4-4-4---4-4-4-4-4--4-4-4-4------------|
A|----2----------2-2----4--4-4-4---4-4-4-4-4--4-4-4-4------------|
E|0----------0-0-0-0-0--0--0-0-0---2-0-2-0-2---------------------|

B# B D D# E
---------------------ending 1 -------------------ending 2
E|-----------------|--------------------------|0-0-0-0-0-0-0-0---|
B|-5-5--4-4-7-7-8-8|-9-9-9-9-9-9--------------|0-0-0-0-0-0-0-0---|
G|-5-5--4-4-7-7-8-8|-9-9-9-9-9-9--------------|1-1-1-1-1-1-1-1---|
D|-5-5--4-4-7-7-8-8|-9-9-9-9-9-9--------------|2-2-2-2-2-2-2-2---|
A|-3-3--2-2-5-5-6-6|-7-7-7-7-7-7-----7-9-7----|2-2-2-2-2-2-2-2---|
E|-----------------|-------------7-9-------9-7|0-0-0-0-0-0-0-0-0-|

Solo (very hard to figure out Maybe this is close)

change pickup (fingered to use all 4 fingers)
F#m G#m
E|----------------------------------------------------------------|
B|-----2--2h5-2-----2h5-2--------------4-4h7-4-----4h7-4----------|
G|-----2-------------------------------4-4-----4---4-----4------4-|
D|-----4-------------------4-2----2----6---------4--------4----4--|
A|-----4-----------------------2-4-----6---------------------6----|
E|-----0-------------------------------0--------------------------|

A B C# Riff to verse F#
E|---------------------------------------------------------------|
B|---------------------------------------------------------------|
G|--6-6-----8-8-----10r------------------------------------------|
D|--7-7---7-9-9---9-11r------------------------------------------|
A|--7-7---7-9-9---9-11r-----------4h6p4--------------------------|
E|--5-5---5-7-7---7--9r-------------------6-2--------------------|

start form the verse again except hold the notes for the verse

except play this instead of the bending p

0 reply
NativeClan 38 wrote on July 9 2010, 06:06 pm

Thanks for the roadmap. I listened to the recording over and over and made what I think are some good tweeks to this great tab. Hope it comes through OK.

guest
You may want to rate the tab now too:
select rating
Please do not post tabs as comments. Select "correction" instead!