Oops, an error
Loading. Please wait.

Angel Bass Tab

version 2
version 2

Whole song

Interactive

861 views 1 this week
no commentswrite comment
1 2 3 4 5
please rate
add to favorites
launch autoscroll
font size
0
reset
guitar tuner
Autoscroll
slow
fast
+/-
esc
set tempo
stop
Help us to improve Ultimate-Guitar.com Take our survey!
×
Contributor
Difficulty
Tuning
lbra73 821
intermediate
D# G# C# F# A# D#
Angel

Verse   
  [F#]     [C#]       [G#]                [B]      [E]        [F#]  [C#]
G|-------------------|-------------------|-------------------|-----------------|
D|-------------------|-------------------|----------2--2---2-|-4---------------|
A|------124-4----46--|--------6-4--------|-2-2----2----------|-------444--2224-|
E|-2-2---------------|-44---4-----6-4-22-|-------------------|-----------------|

  [F#]     [C#]       [G#]                [B]      [E]        [F#]   [E]
G|-------------------|-------------------|-------------------|-----------------|
D|-------------------|-------------------|-------------------|-44444-----------|
A|------124-4----46--|--------6-4--------|-2-2----2----------|-------777777----|
E|-2-2---------------|-44---4-----6-4-22-|----------0--0---0-|-----------------|

(:48)           
G|-------------------|-------------------|-------------------|
D|-------------------|-------------------|-6-6------8-8------|
A|-2-2-2-345-5-5-5---|-444-4-4444444-4---|-------------------|
E|-------------------|-------------------|-----4-4------6-6--|
                
G|-------------------|------------------|
D|-9999999999999999--|-99-99-99-9-9-----|
A|-------------------|------------------|
E|-------------------|------------------|
                
(1:06)
fly on by
G|-------------------------|-----------------------|---------------|-----------------|
D|*-----11/11/9-11/11/9-11-|-----11/11/9--11/9/11--|---------------|----------------*|
A|*-7-7--------------------|-9-9-------------------|-3-----5--6--7-|---7-7-7-7--7-7-*|
E|-------------------------|-----------------------|----5----------|-----------------|

(1:34)                  
G|--------------|----------------|-------------------|-------------------|
D|--------------|----------------|-------------------|-------------------|
A|--765--33-----|-55--66-7-------|-7-------7---------|-7-----------------|
E|----------55--|----------------|-------------------|-------------------|

repeat from top

Outro (3:25)
G|--------------|----------------|-------------------|-10-11-11-11-11-11-11-11-|
D|-444444444446-|-77777777777710-|-11-11-11-11-11-11-|-------------------------|
A|--------------|----------------|-------------------|-------------------------|
E|--------------|----------------|-------------------|-------------------------|

G|-14-14-14-14-14-14-14-|-18-18-18-18-18-18-|-19-19-19-19-19-19-19-19--|
D|----------------------|-------------------|*------------------------*|
A|----------------------|-------------------|*------------------------*|
E|----------------------|-------------------|--------------------------|
comments
We did not receive enough feedback on this tab! Please rate:
print report bad tab
1 2 3 4 5
I want to post or [tab]
guest
You may want to rate the tab now too:
select rating
Please do not post tabs as comments. Select "correction" instead!