Oops, an error
Loading. Please wait.

Angel Tab

version 4
version 4

Whole song

Interactive

1,820 views 72 this week
no commentswrite comment
1 2 3 4 5
3 more votes to show rating
add to favorites
×
Save as Personal and add changes to this tab that will be seen only by you. Learn more ›
×
You can save this tab as Personal to edit and correct it or add notes. All changes will be seen only by you. Learn more »
save as personal
new!
launch autoscroll
font size
0
reset
how to read this tab
guitar tuner
backing track
0:00
0:00
Autoscroll
slow
fast
+/-
esc
set tempo
stop
Author
Difficulty
Tuning
novice
D A D G B E
-------------------------------------------------------------------------------
                             Angel - Jimi Hendrix
-------------------------------------------------------------------------------
Tabbed by:James Glenn
E-mail: Jamesjr440@hotmail.com

Tuning: Drop D.  DADGBE

This is an alternate version jimi recorded. https://www.youtube.com/watch?v=aWGHwUeq3nY 

e|-0---------------------------0-0-(0)----------------------------------------------------------------|
B|-0---------------------------0------(0)-------------------------------------------------------------|
G|-1---1h2-1h2p1---------------2----------------------2---------------------0-------------------------|
D|-2---2---------2------2---2--2-------------2h4-2----2---2/4-4/6-4-2-----2---2-----------------------|
A|-2-------------------2--2-2--0---------2h4-------4--4---------------4-3-------3--3-4\---------------|
D|-2-----------------2--------------------------------------------------------------------------------|
       x           x           x                    x                    x
e|-------------------------------------------------------------0--0-----------------------------------|
B|----------------------------------------------------------------------------------------------------|
G|-----------------4--------------------------------2----------2--2-----------------------------------|
D|-----2-----------4-----------4--------------------2----------2--2------2----------------------------|
A|-----2-------2-------2/4-----4---2/4-2---------0------0h2----2-(2)-----2----------2--4-2------------|
D|-2-------4/6-------------4-------------5-p4p2--------------0---------/2----2-2-4/6-------5b-2-------|
       x                        x                         x
e|----------------------------------------------------------------------------------------------------|
B|-----------------------------------------------------------------------------0-0--------------------|
G|-----------------4--------------------------------------2-----------2------------2-2-2--------------|
D|-----2-----------4------------4-------------------------2-----------4h5----------2-2-2--------------|
A|-----2------2-------2h4-------4-------2h4-2----------0-----0/2------5-------------------------------|
D|-2------4/6-------------4-(4)----4-(4)-------5--4-2------------0---------0-2-------------2-0--------|

e|-----------------------------------------------------------------------2--2-2-2-2-----4-4-4---4-4---|
B|----------------2-2-2-2---------------------0--0-0-0-0-----------------2--2-2-2-2-----4-4-4h7p4-4---|
G|----------------2-2-2-2-------4--4-4--4-----1--1-1-1-1----1-1-1-1------2--2-2-2-2-----4-4-4---4-4---|
D|-4-4-4-4-4------2-2-2-2-------2--2-2--2-----2--2-2-2-2----2-2-2-2------4--4-4-4-4-----6-6-6---6-6---|
A|-0-0-0-0-0--0---------------3----3-3--3---2---------------2-2-2-2-----------------------------------|
D|-0-0-0-0-0----------------0-----------------------------2------------4-------------6----------------|

e|-----5-5-5-5---5-5-5---5----5--5--5--5--5--5--5--5--5--5--5-----------------------------------------|
B|-----5-5-5-5---5-5-5---8b10-10-10-10-10-10-10-10-10-10-10-10r8--------------------------------------|
G|-----6-6-6-6---6-6-6--------------------------------------------------------------------------------|
D|-----7-7-7-7---7-7-7--------------------------------------------------------------------------------|
A|-0-0---------0---0----------------------------------------------------------------------------------|
D|----------------------------------------------------------------------------------------------------|
Strum to the rhythm|
e|--------------0----0-0-0-0--------------------------------------------------------------------------|
B|-3------------0----0-0-0-0-------------------------------3--3-3-3-3-3-------------------------------|
G|-2------------0----0-0-0-0------3-3------5-5-5-5-6-6-6-6-2--2-2-2-2-2-------------------------------|
D|-0------------2----0-2-0-2------3-3---5--5-5-5-5-6-6-6-6-0--0-0-0-0-0------0h2-0--------------------|
A|--------------2----0-2-0-2----1-------5--3-3-3-3-4-4-4-4-0-------------0h2-------2-0----------------|
D|-0------------2----0-2-0-2----------5---------------------------------------------------------------|

e|--------------0-------------------------------------------------------------------------------------|
B|-3------------0-------------------------3-3-3-3---------------------------------------3-------------|
G|-2------------0-----3---------5----2----2-2-2-2---3-3-3-3-----------5-5-5-5--6-6-6-6--2-------------|
D|-0------------2-----3----5----5----2--0-0-0-0-0---3-3-3-3--5-5-5-5--5-5-5-5--6-6-6-6--0-------------|
A|--------------2---1------5--3----0----------------1-1-1-1--5-5-5-5--3-3-3-3--4-4-4-4----------------|
D|-0------------2--------5-----------------------------------5-5-5-5----------------------------------|

e|----------------------------------------------------------------------------------------------------|
B|-3-0h3-0---0h3-0------5-2h5----2h5------------------------------------------------------------------|
G|-0-0-----2-0-------2--2-----2------2-------2----4--4-4-4-4--6--6-6-6-6------------------------------|
D|-2---------------2----2--------2-----4---4------5--5-5-5-5--7--7-7-7-7--9---------------------------|
A|---------------------------------------4--------5--5-5-5-5--7--7-7-7-7--9----2/4-2------------------|
D|-0--------------------2-------------------------5--5-5-5-5--7--7-7-7-7--9----------5-2--------------|

e|----------------------------------------------------------------------------------------------------|
B|----------------------------------------------------------------------------------------------------|
G|---------------4-4-4------------------------------2-2----------------1-1-1-1-1----------------------|
D|-----2---------4-4-4-----4-4-4-4-------2----------2-2-------4-4-4-4--2-2-2-2-2----------------------|
A|-----2------2--------2h4-4-4-4-4-- 2h4----------0-----0h2---0-0-0-0--2-2-2-2-2----------2-4-2-------|
D|-2------4/6--------------4-4-4-4---------5p4-2------------0-0-0-0-0--2-2-2-2-2--2-2-4/6-------5-4-2-|

e|--------------------------------------------------------------------------------------0-0-0-0-0-0-0-|
B|--------------------------------------------------------------------------------------0-0-0-0-0-0-0-|
G|-----------------4----------------------------------------2-2--------2-2---------1-1--2-2-2-2-2-2-2-|
D|-----2-----------4------------4---------------------------2-2--------4-4h5p4-----2-2--4-4-4-4-4-4-4-|
A|-----2------2-------2h4-------4-------2h4-2------------0------0/2----5-5---------2-2--0-0-0-0-0-0-0-|
D|-2------4/6-------------4-(4)----4-(4)-------5p4-2/4-5------------0----------0-2------0-0-0-0-0-0-0-|

e|---------------------0-0-0-0-0-0-0-0-0-------2--2-2-2-2-----4-4-4---4-4-4--------5-5-5-5-5----------|
B|---------------------0-0-0-0-0-0-0-0-0-------2--2-2-2-2-----4-4-4---4-4-4------5-5-5-5-5-5----------|
G|-2--2-2---5-5-5-5-5\-1-1-1-1-1-1-1-1-1-------2--2-2-2-2-----4-4-4---4-4-4--6-6-6-6-6-6-6-6----------|
D|-2--2-2-4-5-5-5-5-5--2-2-2-2-2-2-2-2-2-------4--4-4-4-4-----6-6-6---6-6-6--7-7-7-7-7-7-7-7----------|
A|-0--0-0-2-3-3-3-3-3--2-2-2-2-2-2-2-2-2-------------------------------------0-0-0-0-0-0-0-0----------|
D|---------------------2-2-2-2-2-2-2-2-2----4---------------6-----------------------------------------|
                                Strum to Rythym                        |1st & 2st Ending    |Third Ending
e|---------------------------|-----------0-0-0-0-----------------------|-------------------||---------|
B|-8-8-8-8-8-8-8-8-8-8-8-8-8-|o-3--------0-0-0-0-----------------------|-3----------------o||-3-3-3---|
G|-7-7-7-7-7-7-7-7-7-7-7-7-7-|--2--------0-0-0-0------3-3--------5---6-|-2-----------------||-2-2-2---|
D|-5-5-5-5-5-5-5-5-5-5-5-5-5-|--0--------0-2-0-2------3-3---5----5---6-|-0-----0-0-2-0-----||-0-0-0---|
A|-7-7-7-7-7-7---------------|o----------0-2-0-2----1-------5--3---4---|---0-2---------2\-o||---------|
D|-------------7-7-7-7-7-7-7-|--0--------0-2-0-2----------5------------|-------------------||---------|
************************************

| /   slide up
| \   slide down
| h   hammer-on
| p   pull-off
| ~   vibrato
| +   harmonic
| x   Mute note
| b   Bend
| pb  Pre-bend
| br  Bend release
| pbr Pre-bend release
| brb Bend release bend

************************************
Suggest correction
Give kudos to tab author, rate the tab!
1 2 3 4 5
comments
print report bad tab
guest
You may want to rate the tab now too:
select rating
Wanna post a correction for this tab? Suggest correction