Oops, an error
Loading. Please wait.

Beginnings Tab

version 2
version 2

Whole song

Interactive

1,092 views 3 this week
no commentswrite comment
1 2 3 4 5
please rate
add to favorites
launch autoscroll
font size
0
reset
how to read this tab
guitar tuner
Autoscroll
slow
fast
+/-
esc
set tempo
stop
Help us to improve Ultimate-Guitar.com Take our survey!
×
Author
-----------------------------|
-----------------------------|
-----------------------------|
-----------------------------|
-----5--7-7--5--7-7--5-7-5---|
---7-----------------------0-|   \
                                RePeAt 3X
-----------------------------|   /
-----------------------------|
-----------------------------|
---------------------------5-|
-----5--7-7--5--7-7--5-7-5---|
---7-------------------------|

-----------------------------------|
-----------------------------------|
-----------------------------------|
------8--10-10--8-10-10--8-10-10---|
---10---------------------------10-|
-----------------------------------|

-----------------------------------|
-----------------------------------|
---------------------------------8-|
------8--10-10--8-10-10--8-10-10---|
---10------------------------------|
-----------------------------------|

-----------------------------|
-----------------------------|
-----------------------------|
-----------------------------|
-----5--7-7--5--7-7--5-7-5---|
---7-----------------------0-|

-----------------------------|
-----------------------------|
-----------------------------|
---------------------------5-|
-----5--7-7--5--7-7--5-7-5---|
---7-------------------------|

---------------------------|
---------------------------|
---------------------------|
-----4--6-6--4-6-6-4-6-4---|
---5---------------------5-|
---------------------------|

---------------------------|
---------------------------|
----4--6-6--4-6-6--4-6-4---|
---6---------------------6-|
---------------------------|
---------------------------|

---------------------------|
---------------------------|
---------------------------|
-----4--6-6--4-6-6-4-6-4---|
---5---------------------5-|
---------------------------|

---------------------------|
-------------------------7-|
----4--6-6--4-6-6--4-6-4---|
---6-----------------------|
---------------------------|
---------------------------|

------------------------------------------------------|
------------------------------------------------------|
--12-14-16-18-20-18-16-14-12     PlAy EAch noTE aBOUt-| 10 TimEs
------------------------------------------------------|
------------------------------------------------------|
------------------------------------------------------|

-----------------------------|
-----------------------------|
-----------------------------|
-----------------------------|
-----5--7-7--5--7-7--5-7-5---|
---7-----------------------0-|

-----------------------------|
-----------------------------|
-----------------------------|
---------------------------5-|
-----5--7-7--5--7-7--5-7-5---|
---7-------------------------|

------------------------|
---7--7--8--7--8--8-8-8-|
---7--7--8--7--8--8-8-8-|           repEAT4X
---6--6--7--6--7--7-7-7-|
---7--7--8--7--8--8-8-8-|
------------------------|

-------------------------|
---8--8--9--10--9--8---8-|
---8--8--9--10--9--8---8-|          REPeAt 5X
---7--7--8--09--8--7---7-|
---8--8--9--10--9--8---8-|
-------------------------|

------------------------|
------------------------|
------------------------|
------------------------|
---10---9---7---5---7---|
------8---7---5---3---5-|

---0-
---0-
---0-
---1-
---2-
---2-
---x-

------------------------|
------------------------|
------------------------|
------------------------|
-----10---9---7---5---7-|
---8----7---5---3---5---|

---0-
---0-
---2-
---3-
---3-
---x-

---------------------|
---------------------|
---------------------|
---------------------|
---10--9---7---5---7-|
---8---7---5---3---5-|

---0-
---0-
---0-
---1-
---2-
---2-
---x-

g0 BAck tO BeGiNnIng
Suggest correction
Give kudos to tab author, rate the tab!
1 2 3 4 5
comments
print report bad tab
guest
You may want to rate the tab now too:
select rating
Please do not post tabs as comments. Select "correction" instead!