Oops, an error
Loading. Please wait.

Bleeding Heart Tab

version 1
version 1

Whole song

Interactive

16,144 views 18 this week
no commentswrite comment
1 2 3 4 5
2 more votes to show rating
add to favorites
launch autoscroll
font size
0
reset
how to read this tab
guitar tuner
Autoscroll
slow
fast
+/-
esc
set tempo
stop
Help us to improve Ultimate-Guitar.com Take our survey!
×
Bleeding Heart
Jimi Hendrix

      6  slow blues    tuned ½ step down
      8
e|----------------------------------------|
B|----------------------------------------|
G|--11--7—9--9b11~---11--9----11p9--------|
D|-------------------------9-------9/7----|
A|-------------------------------------9--|
E|----------------------------------------|

|------------------7----------------------| if there is anyone out
|----------------7---7-10-----------------|b there that knows the
|-----11--9~--9----------- entire intro---|please
|-----------------------------------------| tab it and post it!
|--/9-------------------------------------|
|-----------------------------------------|

Here are a couple o’ verse fills
       B to E
e|-------------------------|
B|-------------------------|
G|---11--9-----7h9—7h9-----|
D|----------9--------------|
A|-------------------------|
E|-------------------------|

       F# to E

e|-------------------------|
B|-------------------------|
G|-------------------------|
D|--------------2----------|
A|---------2h4-------------|
E|----2h4-----------0------|
Suggest correction
Give kudos to tab author, rate the tab!
1 2 3 4 5
comments
print report bad tab
guest
You may want to rate the tab now too:
select rating
Wanna post a correction for this tab? Suggest correction