Oops, an error
Loading. Please wait.

Bold As Love Tab

version 2
version 2

Solo

  • The tabbed solo is more accurate than the current ... Show more

Whole song

Interactive

124,149 views 75 this week
10 commentsread comments
1 2 3 4 5
excellent!
x 26
add to favorites
launch autoscroll
font size
0
reset
how to read this tab
guitar tuner
Autoscroll
slow
fast
+/-
esc
set tempo
stop
Help us to improve Ultimate-Guitar.com Take our survey!
×
Author
Difficulty
Tuning
advanced
D G C F A D
Bold As Love
Jimi Hendrix

Nobody had a good tab posted so I looked around for a good one and found this.
this tab is at least %95 right.

D#|--5------------------------------|------------------------------------|
A#|--5----x-------------0-----------|-------2----------------------------|
F#|--6----x--x----------1h2h1-------|-------2h4h2------------------------|
C#|--7----x--x----------------2---2-|-------------4------7--7-7h9-9-7----|
G#|--x----12-x-------2----------4---|---------------0-5-------------7h9--|
D#|--5-------14/--0-----------------|--2---------------------------------|

D#|-------5----------------------------|------------------------------|
A#|-------5h7-5------------0-----------|-------2-------------------6--|
F#|-----------4h6------1-1-1h2---------|-------2h4-2---------------6--|
C#|-------------------------------2--2-|-------------4------7----6----|
G#|------------------------------------|---------------0-5-----4------|
D#|--5--------------0-----------4------|--2---------------------------|

D#|---------------------------------------------|
A#|--------------------------5-------5----5-----|
F#|--7----------7------------4h6-----4h6--4h6---|
C#|--7h9-7------7h9-7--------------7------------|
G#|--------7h9--------7h9/----------------------|
D#|---------------------------------------------|

D#|-----------------------------------------|
A#|---------7h10h7--------------------------|
F#|-----7----------7-------2h4h2------2h4h0-|
C#|------------------9-----------5--5-------|
G#|-----------------------------------------|
D#|--7----7-------------3-------------------|

D#|----------------------------------------|
A#|---------------------------5----5-------|
F#|---------7-----------------4h6--4h6h--4-|
C#|-----------7h9h7------------------------|
G#|--5---5----------7h-9-------------------|
D#|----------------------5-----------------|

D#|---------------------0-----------------|-------5------5/-------0----0-----0-|
A#|--------7h10--7------3-----------------|-------5------5/2------0------------|
F#|--------------7----0-4--------5--5--5--|--4/6-------------0h1--1------0h1---|
C#|-----9----------9/-0-5--5--5--6--6--6--|------------------------------------|
G#|---------------------x--x--x--x--x--x--|------------------------------------|
D#|--7------------------3--3--3--4--4--4--|------------------------------------|

D#|--0h2-2-----2----2-3---3-3---3-5h3-3-3h5h3-3-|
A#|--0h2--------------3-3---3-3-------3-------3-|
F#|--1/2----2----2----4-4---4-4-------4-------4-|
C#|---------------------------------------------|
G#|---------------------------------------------|
D#|---------------------------------------------|

D#|-------5-----5--------0----0-0--0-|
A#|----------------------0------0----|
F#|--4/6-----6----6--0h1-1------1----|
C#|----------------------------------|
G#|----------------------------------|
D#|----------------------------------|

D#|--2--2-----2-2--2-----3-5h3---3h5h3-3-3h5h3-3-|
A#|--2--2--2-------------------------------------|
F#|--2-----2---------3/4-------4-----------------|
C#|----------------------------------------------|
G#|----------------------------------------------|
D#|----------------------------------------------|

D#|-------5--7-9-9-9-8-7--7--7--7-7-x-|--2---------------------|
A#|-----------------------------------|--2---------------------|
F#|--4/6-----7/9---9-8-7--7--7--7-7-x-|-------------------7----|
C#|-----------------------------------|-------------------7----|
G#|-----------------------------------|-----------5--5----7h9/-|
D#|-----------------------------------|------------------------|

D#|--------------------------------------------|--------------------------------|
A#|--------5-----------7h10h7------------------|--------------------------------|
F#|--------5h7h5-6------------7---------0------|--------7-7-----------4---------|
C#|----------------7------------9-9-7h9--------|-----7----7h9h7-------5-5----6--|
G#|-----7---------------------------------7h9--|--5-------------9/------5-------|
D#|--5---------------7-------------------------|-------------------3------4-----|

D#|-----5--------------------------------------|-------------------------|
A#|-----5h7--5----5----------------------------|-------------------------|
F#|----------4h6--4h6/--4-------1-1h2--1-------|----------7-6-7-6-7-6----|
C#|--------------------------------------2---2-|----------------------7~-|
G#|--------------------------2-------------4---|-------------------------|
D#|--5--------------------0--------------------|-------------------------|

D#|------------------------------------|-------------------------------------|
A#|------------------------------------|-------2-----------------------------|
F#|---------------------------1h2h1----|-------2h4--2------7--7------6-------|
C#|----------------------2-----------2-|--4-----------4--0-7--7------------7-|
G#|-----7-7-7h9----------2-------------|-------------------5-----7/8---8/9---|
D#|--5-----------7h9--0----------------|-------------------------------------|

D#|-----------------------------------|--------------------------------|
A#|-------------------------5----5----|--------7h10h7----3-------------|
F#|---------7---------------6h7--6----|--------7------7--2-4-2---------|
C#|------7--7h9-7------------------7--|-----9------------------5-5--5--|
G#|--7h9-9--------9/7-----------------|--------------------------------|
D#|-------------------5--5------------|--7-----------------------------|

D#|------------------------------------|--------------------------------|
A#|------------------------5-----------|-------7------------------------|
F#|------------7-----------6h7--6------|-------7--7---4--4--4--5--5--5--|
C#|---------7----7----------------7--0-|-------9--7---5--5--5--6--6--6--|
G#|------9-----------------------------|-------x--x---x--x--x--x--x--x--|
D#|--10-------------5--5-5-------------|--7----7--10/-3--3--3--4--4--4--|

D#|------5---5---5---5---5---5-----0---0-----0-----0-|
A#|------5---5---5---5---5---5-----------------------|
F#|--5/6---6---6---6---6---6---0h1-------0h1---0h1---|
C#|--------------------------------------------------|
G#|--------------------------------------------------|
D#|--------------------------------------------------|

D#|-------2-----2----2-----3-5-3-3-3-3h5---3-3-3-|
A#|--1/2-----2-----------------3-3-3-3---3-3-3-3-|
F#|--1/2----------2----3/4-----4---------4-------|
C#|----------------------------------------------|
G#|----------------------------------------------|
D#|----------------------------------------------|

D#|------5---5---5---5---5---5------0----0----0-|
A#|------5---5---5---5---5---5-------------0----|
F#|--5/6---6---6---6---6---6---0h1---------1----|
C#|---------------------------------------------|
G#|---------------------------------------------|
D#|---------------------------------------------|

D#|-------2-----2----2------3----3-5h3---3h5h3---|
A#|--1/2--2-----2-------------3----------------3-|
F#|--1/2-----2----2----3/4----4--------4---------|
C#|----------------------------------------------|
G#|----------------------------------------------|
D#|----------------------------------------------|

D#|-------5-------9-9-9-----7---7---7-7--|--2----------------------------|
A#|--------------------------------------|--2----------------------------|
F#|--5/6----6-7/9---9---9/7---7---7---7--|---------------------7---------|
C#|--------------------------------------|---------------------7h9-------|
G#|--------------------------------------|-------------5--5----------7h9-|
D#|--------------------------------------|-----------5-------------------|

D#|----------------------------------------|--------------3--3--3--4--4--4--|
A#|------------------------10-7h10h-7----0-|--------7--7--3--3--3--4--4--4--|
F#|-----6--6h7--6-6--6--------7----------0-|--------7--7--4--4--4--5--5--5--|
C#|-----7---------7----------------------0-|--7--7--7--7--5--5--5--6--6--6--|
G#|-----------------------------------9----|--5--5--5--5--x--x--x--x--x--x--|
D#|--5-----------------7-------------------|--------------3--3--3--4--4--4--|

D#|-----5-------------------0----|--2-----2------------0--0-0-------|
A#|-----5--5--5----0--0-----0----|--2--2----2-2--2--5--5--5-5----0--|
F#|--6--6--7--6----1--1--1----1--|--2--2----4-2--2-------------0-0--|
C#|--7--7--7--7-7/-2--2-------2--|--4--4----4----4--5----------0----|
G#|--x--x----------2--2-------2--|--x-------------------------------|
D#|--5--5----------0--0-------0--|--2-------------------------------|

D#|----------5----------0----0-0--|--------2--2-3--2-5h3--5h3--5h3-3-5h3-3-|
A#|----------5-----5----0----0-0--|-----2--2---------3----3----3-----3-----|
F#|--6--6----6-----6-1--1----1-1--|------------------4----4----4-----4-----|
C#|--7--7-7--7--7--7-2--2------2--|--4---------------5----5----5-----5-----|
G#|--x--x----x--x----2--2------2--|--x-------------------------------------|
D#|--5--5----5--5----0---------0--|--2-------------------------------------|

D#|--5--5--5--5-------------------|-----5----5--------------3----3---------|
A#|--5--5--5--5-x--x--------------|-------7----5--5-5----3--3-3--3-3--3-3--|
F#|--6--6--6--6-x--x---------1----|--6----6----6--6-6--6-4----4----4--4-4--|
C#|--7--7--7----x--x-2--2----2----|--------------------7-5----5----5--5-5--|
G#|--x-----x---------2--2----2----|----------------------x----x----x--x-x--|
D#|--5-----5---------0--0----0-0--|----------------------3----3----3--3-3--|

D#|------------------0--0--0--0-0--|-----2--2--2-------0--0--0-0--0-|
A#|--------5----5----0--0--0--0-0--|--2--2--2--2----3--3--3--3-3--3-|
F#|-----6--6-7--6----1--1--1--1-1--|--2--2--2--2--0-4--4--4--4-4--4-|
C#|--7--7--7-7----7--2--2----------|--4--4--4--4--0-5--5--5--5-5--5-|
G#|--x--x------------2--2----------|--x--x--x--x----x--x--x--x-x--x-|
D#|--5--5------------0--0----------|--2--2--2--2----3--3--3--3-3--3-|

D#|--7/9---9---9---9---9---9---7/9---7---7---7---7---7---7-|
A#|--------------------------------------------------------|
F#|--7/9-9---9---9---9---9---9-7/9-7---7---7---7---7---7---|
C#|--------------------------------------------------------|
G#|--------------------------------------------------------|
D#|--------------------------------------------------------|

D#|----2---2---2---2---2---2/14-14-14-14/-16-------|
A#|-------------------------------------------x----|
F#|--2---2---2---2---2---2-2/14-14-14-14/-16--x--x-|
C#|----------------------------------------------x-|
G#|------------------------------------------------|
D#|------------------------------------------------|

D#|--7/9---9---9---9---9---8---7---7---7---7---7---7---|
A#|----------------------------------------------------|
F#|--7/9-9---9---9---9---8---8---7---7---7---7---7---7-|
C#|----------------------------------------------------|
G#|----------------------------------------------------|
D#|----------------------------------------------------|

D#|--2---2---2---2---2---2---7---7---7---8---8---8---|
A#|--------------------------------------------------|
F#|----2---2---2---2---2---2---7---7---7---8---8---8-|
C#|--------------------------------------------------|
G#|--------------------------------------------------|
D#|--------------------------------------------------|

D#|--8/9---9---9---9---9---8---7---7---7---7---7---7---|
A#|----------------------------------------------------|
F#|--8/9-9---9---9---9---8---8---7---7---7---7---7---7-|
C#|----------------------------------------------------|
G#|----------------------------------------------------|
D#|----------------------------------------------------|

[solo]
D#|------------------|----------7-7-7-7-7-7-8-8-8-8-8-8-|
A#|------------------|----------------------------------|
F#|------------------|----------7-7-7-7-7-7-8-8-8-8-8-8-|
C#|------------------|----------------------------------|
G#|------------------|----------------------------------|
D#|------------------|----------------------------------|

D#|--9-9-9-9-9-9-9-9-9-9-9-8---7---7---7---7---7---7-|
A#|--------------------------------------------------|
F#|--9-9-9-9-9-9-9-9-9-9-9-8-7---7---7---7---7---7---|
C#|--------------------------------------------------|
G#|--------------------------------------------------|
D#|--------------------------------------------------|

D#|--14-14----14----14----14----14----14---7---7---7---8---8---8-|
A#|--------------------------------------------------------------|
F#|--14----14----14----14----14----14----7---7---7---8---8---8---|
C#|--------------------------------------------------------------|
G#|--------------------------------------------------------------|
D#|--------------------------------------------------------------|

D#|----9---9---9---9---9---8---7---7---7---7---7---7-|
A#|--------------------------------------------------|
F#|--9---9---9---9---9---8---7---7---7---7---7---7---|
C#|--------------------------------------------------|
G#|--------------------------------------------------|
D#|--------------------------------------------------|

D#|-----14----14----14----14-14-14----14---7---7---7---8---8---8-|
A#|--------------------------------------------------------------|
F#|--14----14----14----14----14----14----7---7---7---8---8---8---|
C#|--------------------------------------------------------------|
G#|--------------------------------------------------------------|
D#|--------------------------------------------------------------|

D#|----9---9---9---9---8-8-----7---7---7---7---7---7-|--5----------------|
A#|--------------------------------------------------|-------------------|
F#|--9---9---9---9---9-8---8-7---7---7---7---7---7---|--6----------------|
C#|--------------------------------------------------|-------------------|
G#|--------------------------------------------------|-------------------|
D#|--------------------------------------------------|-------------------|

D#|---------------------|---------------------------------------------5--|
A#|---------------------|-------------------------------------------5----|
F#|---------------------|--------------------------------------5-7b------|
C#|---------------------|------------------------------5---5-7-----------|
G#|---------------------|--------------3---3-5-3-5-5/7---7---------------|
D#|-----------------0-3-|--3-0-3-5-3-5---5-------------------------------|

D#|------------------------|--------------------------|---------2---------------|
A#|--8b-----8r-------------|--5r----------------------|-------2---5-------------|
F#|------------7b-7--7b----|-----------2/5~--4h-2h4h2-|--4b---------4r----4r--2-|
C#|----------------------0-|--------------------------|-------------------------|
G#|------------------------|--------------------------|-------------------------|
D#|------------------------|--------------------------|-------------------------|

D#|----------------------|----------------------|-------------------------------|
A#|----------------------|----------------------|-------------------------------|
F#|----------------------|--4r-----------4r---2-|---------2----2----------------|
C#|--2/4~-------5~-------|----------------------|--2h4~------4----4/5~--5--7-5/-|
G#|----------------------|----------------------|-------------------------------|
D#|----------------------|----------------------|-------------------------------|

D#|-------5-----8--10-10b-10b-10b-----|--12b-----12r-10~-----10--|
A#|-----5----10-----------------------|--------------------------|
F#|--6--------------------------------|--------------------------|
C#|-----------------------------------|--------------------------|
G#|-----------------------------------|--------------------------|
D#|-----------------------------------|--------------------------|

D#|--12b---12r---------------------|------------10--12b-------|
A#|--------------10~-10~--12r---10-|--12~---12----------------|
F#|--------------------------------|--------------------------|
C#|--------------------------------|--------------------------|
G#|--------------------------------|--------------------------|
D#|--------------------------------|--------------------------|

D#|--12r---12-12r--------------|-----------------------------------|
A#|----------------10~-----12--|--12r-10---------10----------------|
F#|----------------------------|---------11~-11~-----12~-12~-12~---|
C#|----------------------------|-----------------------------------|
G#|----------------------------|-----------------------------------|
D#|----------------------------|-----------------------------------|

D#|--12-14-14b---14r12-14~---12h14h12----12--|--------------------------|
A#|-----------------------------------14-----|--12b-------14r-------0---|
F#|------------------------------------------|------------------12/---5-|
C#|------------------------------------------|------------------x-------|
G#|------------------------------------------|--------------------------|
D#|------------------------------------------|--------------------------|

D#|---------------5----------|--------------------------------|
A#|----8b-----------8-5------|--------------------------------|
F#|----8b---------------7b-7b|--7b7-5-------------------------|
C#|--------------------------|--------7-5---------7~-------5--|
G#|--------------------------|------------7-5-----------------|
D#|--------------------------|----------------8-5-------------|

D#|-------------------------------|------------------|------------------|
A#|-------------------------------|------------------|------------------|
F#|--7b7-5------------------------|------------------|------------------|
C#|--------7-5--------------------|------------------|------------------|
G#|------------7-6-5-3-5r--3h0----|------------------|------------------|
D#|-------------------------------|------------------|------------------|

D#|--9-------9-----------------|----------------------------|
A#|--12b-----12r-9-9---9-------|--11----11--9---7--7--9-----|
F#|----------------11b-11b-----|--13b---13b-11b-9b-9b-11b---|
C#|----------------------------|----------------------------|
G#|----------------------------|----------------------------|
D#|----------------------------|----------------------------|

D#|--9-------9-----------------|--------------------------------|
A#|--12b-----12r-9-9---9-------|--11--------12--12-------9-9--9-|
F#|----------------11b-11b-----|--13b-------14b-14b-6/11--------|
C#|----------------------------|--------------------------------|
G#|----------------------------|--------------------------------|
D#|----------------------------|--------------------------------|

D#|--11b-----11r--9-11--11~-----|--11r---9--------12b-12b--15b--|
A#|--11b------------------------|----------11~-9----------------|
F#|-----------------------------|-------------------------------|
C#|-----------------------------|-------------------------------|
G#|-----------------------------|-------------------------------|
D#|-----------------------------|-------------------------------|

D#|--15b-15r---------------------|-----------------16b----16b-x-|
A#|---------------13h14~-----16b-|----14--------14--------------|
F#|-------------0----------------|-------15~--------------------|
C#|------------------------------|------------------------------|
G#|------------------------------|------------------------------|
D#|------------------------------|------------------------------|

D#|--16b-14h16h14-13--16----------------------|---------------------16b--------|
A#|---------------16b----16b-16b16~--14-16b---|----16r--14----14~---------x----|
F#|-------------------------------------------|------------15-------------x----|
C#|-------------------------------------------|---------------------------x----|
G#|-------------------------------------------|--------------------------------|
D#|-------------------------------------------|--------------------------------|

D#|-------9---13h9---9-----8---8h4---8h4---8h4-----|
A#|-----9---9------9---9/4---4-----4-----4-----4/6-|
F#|--10--------------------------------------------|
C#|------------------------------------------------|
G#|------------------------------------------------|
D#|------------------------------------------------|

D#|--9---9h6---9h6---9h6---11h7---11h7---12h8---12h8-----|
A#|----6-----6-----6-----6------7------7------8------8/9-|
F#|------------------------------------------------------|
C#|------------------------------------------------------|
G#|------------------------------------------------------|
D#|------------------------------------------------------|

D#|--13h9---13h9---13h9---13h9-----8h4---8h4---8h4---8h4---|
A#|-------9------9------9------9/4-----4-----4-----4-----6-|
F#|--------------------------------------------------------|
C#|--------------------------------------------------------|
G#|--------------------------------------------------------|
D#|--------------------------------------------------------|

D#|--9h6---9h6---9h6---9h6---11h7---11h7-----12---12h8-----|
A#|------6-----6-----6-----6------7------7/8----8------8/9-|
F#|--------------------------------------------------------|
C#|--------------------------------------------------------|
G#|--------------------------------------------------------|
D#|--------------------------------------------------------|

D#|--9-------9----9------9------12-9------9----9----9----9----|
A#|----9-12b---12-9----9---12h9------9-12b--12b--12b--12b--12b|
F#|-----------------11b---------------------------------------|
C#|-----------------------------------------------------------|
G#|-----------------------------------------------------------|
D#|-----------------------------------------------------------|

D#|--9----9----9--------9-----------9-12b-12~-|
A#|----12b--12b--12b------12h9----9-----------|
F#|----------------------------11b------------|
C#|-------------------------------------------|
G#|-------------------------------------------|
D#|-------------------------------------------|

D#|--9---12b-12~-9---12b-12~-9---12b-12~-9--------|
A#|----9-----------9-----------9-----------9-12b--|
F#|-----------------------------------------------|
C#|-----------------------------------------------|
G#|-----------------------------------------------|
D#|-----------------------------------------------|

D#|--9-----------9------------------------------------------|
A#|----12-9----9---12-9-------------------------------------|
F#|---------11b---------11b11-9-----------------------------|
C#|-----------------------------11-9---------------------9--|
G#|----------------------------------11-10-9-9-7-9/11-11----|
D#|---------------------------------------------------------|

D#|-------------------------------------|
A#|-------------------------------------|
F#|-------------------------------------|
C#|--11b-11--9-11-9--------9-11b--9-----|
G#|-----------------7-9/11----------11~-|
D#|-------------------------------------|

D#|-------------------------------------------|
A#|-------------------------------------------|
F#|-------------------------------------------|
C#|--------11-13b-13~--11-------11--10~-------|
G#|--11/13----------------11-11---------11-10-|
D#|-------------------------------------------|

D#|--------------------9------9-----------9-|
A#|------------------9---12b----12-9----9---|
F#|-------------9/10-----------------11b----|
C#|------11-9~------------------------------|
G#|--9-8------------------------------------|
D#|-----------------------------------------|

D#|-------------------------------------9-9-9----|
A#|--12h9-----------------------------9---9-9-x--|
F#|-------11b11--9--------------9-11b---------x--|
C#|----------------11-9----9-11------------------|
G#|---------------------11-----------------------|
D#|----------------------------------------------|

D#|-----16-16----16----16----16----16-16/-16-16----16----16-4/---|
A#|--18-18----18----18----18----18----18/-16----16----16-16/4/---|
F#|--------------------------------------------------------------|
C#|--------------------------------------------------------------|
G#|--------------------------------------------------------------|
D#|--------------------------------------------------------------|

D#|--18-18-18-18-18-18-18-18-18-18-18-18-18-18-18-18---------||
A#|--18-18-18-18-18-18-18-18-18-18-18-18-18-18-18-18---------||
F#|----------------------------------------------------------||
C#|----------------------------------------------------------||
G#|----------------------------------------------------------||
D#|----------------------------------------------------------||

D#|--2--------5--5-----5--5-----|--5--------5--5----5----5----5--------|
A#|-----------3--3-----3--3--0--|--5--------3--3----3----3----3--------|
F#|--2--------2--2--0--2--2--0--|--2--------2--0h2--0h2--0h2--0h2------|
C#|-----------0--0--0--0--0--0--|--2--------0--0----0----0----0--------|
G#|-----------------------------|--0-------------------------------3h0-|
D#|-----------------------------|--------------------------------------|

D#|--5--------5--5----5----5----5--------|--5------------|------------------|
A#|--5--------3--3----3----3----3--------|--5------------|------------------|
F#|--2--------2--0h2--0h2--0h2--0h2--0---|--2------------|------------------|
C#|--2--------0--0----0----0----0------2-|--2------------|------------------|
G#|--0-----------------------------------|--0------------|------------------|
D#|--------------------------------------|---------------|------------------|

************************************

| x  Dead note
| h  Hammer-on
| r  Release
| b  Bend
| /  Slide up
| ~  Vibrato

************************************
Suggest correction
comments
print report bad tab
10 comments total. Showing first comments. show 1 bad comment
+6 reply
jimipage32 10 wrote on May 30 2007, 12:51 am

dude this is really ****in good

+4 reply
poad12 20 wrote on February 27 2008, 09:09 am

this is the whole tab, and it's awsome

guest
You may want to rate the tab now too:
select rating
Wanna post a correction for this tab? Suggest correction