Oops, an error
Loading. Please wait.

Bold As Love Bass Tab

version 2
version 2

Whole song

Interactive

7,406 views 12 this week
no commentswrite comment
1 2 3 4 5
please rate
add to favorites
launch autoscroll
font size
0
reset
guitar tuner
Autoscroll
slow
fast
+/-
esc
set tempo
stop
Help us to improve Ultimate-Guitar.com Take our survey!
×
Author
meuno 223
standard tuning.
i figured this out by listening to the following bass cover: 
http://www.youtube.com/watch?v=ZlxXcI6s-78
since many pieces are repeated i labeled them A to E. the piece with C' i was not sure
what was played.

i take pride in my work and i would appreciate it if i am mentioned when you
copy this material. i would also like to give credit to jimi hendrix for
making awesome music and to DonLorenzzo for making the video which made this
tabbing possible.

Enjoy!

intro
---------------------------------------------------|
---------------------------------------------------|
-6------4------4-------------6------4------4-4-3-3-|
----------------------4----------------------------|

A
-------------------------|
-------------------------|
-4---4-3-----------------|
---------4----4-6----6-2-|

B
-------------------------------------|
-------------------------------------|
---4---4-3---------------------------|
-2---------4----4-6----6-2-2-2-3-3-3-|

C
-------------------------6-6-5---|
-----------------3-5-6---------6-|
---------6---5-6-------4---------|
-4---3-4-------------------------|

D
-----------------------------------|
-----------------3-5-6------6----6-|
---------6---5-6----------4----6---|
-4---3-4---------------------------|

C
-------------------------6-6-5---|
-----------------3-5-6---------6-|
---------6---5-6-------4---------|
-4---3-4-------------------------|

E
-----------------------------|
-----------------------4---5-|
---------6----6-4----4---4---|
-4----4----------------------|

C
-------------------------6-6-5---|
-----------------3-5-6---------6-|
---------6---5-6-------4---------|
-4---3-4-------------------------|

D
-----------------------------------|
-----------------3-5-6------6----6-|
---------6---5-6----------4----6---|
-4---3-4---------------------------|

A
-------------------------|
-------------------------|
-4---4-3-----------------|
---------4----4-6----6-2-|

B
-------------------------------------|
-------------------------------------|
---4---4-3---------------------------|
-2---------4----4-6----6-2-2-2-3-3-3-|

C
-------------------------6-6-5---|
-----------------3-5-6---------6-|
---------6---5-6-------4---------|
-4---3-4-------------------------|

D
-----------------------------------|
-----------------3-5-6------6----6-|
---------6---5-6----------4----6---|
-4---3-4---------------------------|

C
-------------------------6-6-5---|
-----------------3-5-6---------6-|
---------6---5-6-------4---------|
-4---3-4-------------------------|

E
-----------------------------|
-----------------------4---5-|
---------6----6-4----4---4---|
-4----4----------------------|

C
-------------------------6-6-5---|
-----------------3-5-6---------6-|
---------6---5-6-------4---------|
-4---3-4-------------------------|

D
-----------------------------------|
-----------------3-5-6------6----6-|
---------6---5-6----------4----6---|
-4---3-4---------------------------|

C'
-------------------------6-6-5-6-|
-----------------3-5-6-----------|
---------6---5-6-------4---------|
-4---3-4-------------------------|

D
-----------------------------------|
-----------------3-5-6------6----6-|
---------6---5-6----------4----6---|
-4---3-4---------------------------|

C
-------------------------6-6-5---|
-----------------3-5-6---------6-|
---------6---5-6-------4---------|
-4---3-4-------------------------|

D
-----------------------------------|
-----------------3-5-6------6----6-|
---------6---5-6----------4----6---|
-4---3-4---------------------------|

D
-----------------------------------|
-----------------3-5-6------6----6-|
---------6---5-6----------4----6---|
-4---3-4---------------------------|

outtro
---------------|
---------------|
-4-4-4-4-4-3---|
-------------4-|

---------------|
---------------|
-4-4-4-4-4-3---|
-------------4-|
Suggest correction new What's this?
You can suggest a correction to this tab. Community and Mods will review your correction and vote to approve or reject it.
comments
We did not receive enough feedback on this tab! Please rate:
print report bad tab
1 2 3 4 5
guest
You may want to rate the tab now too:
select rating
Please do not post tabs as comments. Select "correction" instead!