Oops, an error
Loading. Please wait.

Can You See Me Bass Tab

version 2
version 2

Whole song

Interactive

159 views 1 this week
no commentswrite comment
1 2 3 4 5
please rate
add to favorites
launch autoscroll
font size
0
reset
guitar tuner
Autoscroll
slow
fast
+/-
esc
set tempo
stop
Help us to improve Ultimate-Guitar.com Take our survey!
×
Author
Difficulty
novice
Can you See Me

Intro           
G|------------------------|-------------------------|-----------------|
D|----------8-------------|-----------8-------------|-----------------|
A|-10--1010---8-10-1010-8-|-8-10-1010---8-10-1010-8-|-10-r------------|
E|------------------------|-------------------------|-----------------|

Verse [x2]              
G|--------------------|------------------------|-------------------------|
D|*-10r10r-8108108---*|----------8-------------|-----------8-------------|
A|*------------------*|-10--1010---8-10-1010-8-|-8-10-1010---8-10-1010-8-|
E|--------------------|------------------------|-------------------------|

Pre-Chorus              
G|-----------------|---------------------|-------------------------|-------------|
D|-----------------|----------8--10--8---|-------------------------|-------------|
A|-----------------|-------10---------10-|-------------------------|-10-r--------|
E|-10-10-10-10-8-r-|---------------------|-10-10-10-10-10-10-10-10-|-------------|

Verse, Pre-Chorus

Guitar Solo             
G|----------------------|-----------------|
D|*--------------------*|-----------------|
A|*-10-10-10-10--8-10--*|-10-r------------|
E|----------------------|-----------------|

Verse, Pre-Chorus

Ending [x2]
G|--------------------|------------------------|
D|*-10r10r-8108108---*|----------8-------------|
A|*------------------*|-10--1010---8-10-1010-8-|
E|--------------------|------------------------|

G|--------------------|------------------|
D|*-10r10r-8108108---*|-----8------------|
A|*------------------*|-10------10-8-----|
E|--------------------|------------------|
Suggest correction
Give kudos to tab author, rate the tab!
1 2 3 4 5
comments
print report bad tab
guest
You may want to rate the tab now too:
select rating
Wanna post a correction for this tab? Suggest correction