Oops, an error
Loading. Please wait.

Castles Made Of Sand Tab

version 1
version 1
13,412 views 15 this week
1 commentread comment
1 2 3 4 5
excellent!
x 6
add to favorites
launch autoscroll
font size
0
reset
how to read this tab
guitar tuner
Tab Pro tools
  • play this tab
  • loop segment
  • change instrument
  • show fretboard
  • metronome
×
Best way to learn
"Castles Made Of Sand"
Autoscroll
slow
fast
+/-
esc
set tempo
stop
Contributor
Composer:  Jimi Hendrix
Song:  - Castles Made of Sand
(Just the intro, and but how I play but seems perfect to me (learned from oringinal and 
Jimi Hendrix - Castles Made of Sand tabs on Ultimate-guitar.com))


x - mute string
t - use  thumb
/ - slide down
\ - slide up
h - hammer on
p- pull off
( ) - sustained notes
* - damped note with palm
~ - hold note and pause for a sec
v - vibrato

E---3-/-5---5-/-8----8-/-10-----10-\-8---8-\-5---5-\-3-----3-/-5---3-------|
B---1-/-3---3-/-6----6-/-8------8--\-6---6-\-3---3-\-1-----1-/-3-----------|
G---x-/-x---x-/-x----x-/-x------x--\-x---x-\-x---x-\-x-----x-/-x-----------|
D---3-/-5---5-/-8----8-/-10-----10-\-8---8-\-5---5-\-3-----3-/-5-----------|
A---x-/-x---x-/-x----x-/-x------x--\-x---x-\-x---x-\-x-----x-/-x-----------|
E---1-/-3---3-/-6----6-/-8------8--\-6---6-\-3---3-\-1-----1-/-3-----------|
    t   t   t   t    t   t      t    t   t   t   t   t     t   t

E----------------------------------------------------------------------------|
B----------------------7h10p7------------------------------------------------|
G------------------------------7-------------7-\---only hit G string---------|
D-----------------7/9----------9--7------7--(7)(\)---------------------------|
A--------------5---------------------10-----(10)p----------------------------|
E---3--3--5/7----------------------------------------------------------------|

E-------------------------------------------|
B-------------------------------------------|
G-------------5----5--5--5-----5--------5---|-(slide optional)
D-------------5----5--7--5-----5--------5/--|
A----------3----------------8--------8------|
E---2/3h5-------------------------6---------|


E--------------------------------------------------------------------------|
B-----------------------------------3--------------------------------------|
G----4------------------5-----5-----4-------3--3-------5-------------------|
D----5-------3--3-------5-----5-----5-------3--3-------5--5----------------|
A-------3h5--------5/7-----------------3h5--------5/7----------------------|
E-3------------------------6-----3---------------------------6-------------|(slide opt)
  t  *                           t


E----------------------------------------------------------------------------|
B--------------------------------------------------5--------5----------------|
G--------0--0--------0-----0----------------5h7--7----------5h7--5-----------|
D-----3--3--3--------3-----3----------------------------------------7--5-----|
A-----3--3--3--3--3-----3----------------------------------------------5h7---|
E-1--1---------1--1-----------1\5--------------------------------------------|
  t  t         t  t           t t


E----------------------------------------------------------------------------|
B---8--12--12--12--p12------------------------------------------------5------|
G---x---x---x---x---x---x---------------------------------------------5------|
D---9--12--12--12--12---x---------------------------------------------5------|
A-----------x---x---x---x-------------------------------3--5/7---------------|
E-0---------0---0---0---x--0-----------------------3/5-----------------------|

E--------------------------------------5-----5-----------------------------|
B-----12--12-x-------------------------3-----3-----------------------------|
G------0---0-x-----3--3-----3--3-------0--------2h4p2------2h4p4-----------|
D-----12--12-x-----3--3-----3--3-------5---------------5~---------5/3------|
A--------------0h5------0h5------------------------------------------------|
E-3-3-----------------------------3-3--------------------------------------|
  t t                             t t


E------------------------------------0~----0~------------0----------------|
B---1--1--1-------------------------0-~----0~------0----------------------|
G---x--x--x------------------------0h2~------------2/4-------4\2p0--------|
D---3--3--3-----3------3---------------------------------------------2v---|
A---------------3-----------0---------------------------------------------|
E-1-----------1-1--3/5----------------------------------------------------|
  t


E----------------------------------------------------------------------|
B----------------------------------------------------------------------|
G------------------------------------------------------------0-------5-|
D-----------0~h2--------------2--2p0-------------------------3-------5-|
A-------------------------------------0h2--2--0-----------------2/3----|
E---0---------------------------------------------------3/5------------|

E-------------------------------------------------------------|
B-------------------------------------------------------------|
G---------0~-----0-------5------------------------------------|
D---------5~-----5-------5-------------5-----5----------------|
A---------5~-----5--5/7----------------5-----5----------------|
E---3--3------3------------------3--3-----3--3----------------|
    t  t      t


E--------------------7---------------------------------------------|
B--------------------7h10p0--7-------------------------------------|
G--------------------7-------7-------------------------------------|
D-----------------7-------------9--7------7------------------------|
A--------------5----------------------10---------------------------|
E---3--3--5/7------------------------------------------------------|

E------------------------------------------------------|
B------------------------------------------------------|
G----------5-------5--5--5-----5-----5\-------5--------|
D----------5-------5--7--5-----5-----5\-------5--------|
A-------3-------------------8-----8--------8-----------|
E---/5----------------------------------6--------------|

E-------------------------------------------------------------|
B-------------------------------------------------------------|
G---------------0---------------------------------------------|
D---------------5--5p0------3-3----5--------------------------|
A------5----------------3h5-----------------------------------|
E---3---------------------------/6----------------------------|
    t


E------------------------------~-------3------------------------|
B------------------------------~-------3------------------------|
G-----4-------3--------5-------~-------4------------------------|
D-----5-------3-3------5--5----~-------5------------------------|
A-----5--3h5------5/7-----x----~-------5------------------------|
E---3---------------------6----~-------3------------------------|
    t


I pretty much believe this is an intermediate tab that novices can play and will 
really boost your level
comments
print report bad tab
1 comment total.
0 reply
teddyg10594 wrote on August 31 2010, 12:21 pm

pretty good man 5 stars

I want to post or [tab]
guest
You may want to rate the tab now too:
select rating
Please do not post tabs as comments. Select "correction" instead!