Oops, an error
Loading. Please wait.

Castles Made Of Sand Bass Tab

version 3
version 3
7,896 views 12 this week
2 commentsread comments
1 2 3 4 5
accurate
x 4
add to favorites
launch autoscroll
font size
0
reset
guitar tuner
Autoscroll
slow
fast
+/-
esc
set tempo
stop
Help us to improve Ultimate-Guitar.com Take our survey!
×
Castles Made Of Sand - Jimi Hendrix
Axis: Bold As Love
Bassist: Noel Redding
Standard Tuning

Verse 1
G-----------------------------------------------------------------------|
D-----------------------------------------------------------------------|
A--7-77-7--7-11-1111-11-9h11-6-66-6-6--7---9--9--9-99-999-9-9-9-99-9----|
E----------------------------------------7---9--9-----------------------|

Verse 2, 4, & 6
G-----------------------------------------------------------------|
D-----------------------------------------------------------------|
A--7-77-7--7-11-1111-11-6-66-6-6--7---9--9--9-99-999-9--9--9--9---|
E-----------------------------------7---9--9-----------9--9-------|

Only Hendrix in Chorus

Verse 3
G-------------------------------------------------------------------|
D-------------------------------------------------------------------|
A--7-77-7--7-11-1111-11-6-66-6--7---9--9--9-99-999-9--9--9----99----|
E---------------------------------7---9--9-----------9--9---9-------|

Solo
G---------------------------------------------------------------|
D---------------------------------------------------------------|
A--7h9-999-99-9--7h9-999-99-999--7h9-999-9-999--7h9-999-99-9----|
E---------------------------------------------------------------|

Verse 5
G---------------------------------------------------------------|
D---------------------------------------------------------------|
A--7-77-7--7-11-1111-11-6-66-6--7---9--9--9--9-9-9--9--9--9-9---|
E---------------------------------7---9--9---------9--9---------|

Only Hendrix in Outro
Suggest correction
comments
print report bad tab
2 comments total.
+1 reply
Justpissed247 128 wrote on September 11 2010, 04:43 pm

My only beef with this tab, is that the tuning is 1/2 step down. other then that it's okay

0 reply
thewhoisawesome 70 wrote on August 15 2011, 11:05 pm

my bad i noticed that a long time after i made the tab

guest
You may want to rate the tab now too:
select rating
Wanna post a correction for this tab? Suggest correction