Oops, an error
Loading. Please wait.

Changes Bass Tab

version 2
version 2

Whole song

Interactive

952 views 1 this week
no commentswrite comment
1 2 3 4 5
2 more votes to show rating
add to favorites
launch autoscroll
font size
0
reset
guitar tuner
Autoscroll
slow
fast
+/-
esc
set tempo
stop
Help us to improve Ultimate-Guitar.com Take our survey!
×
Author
Difficulty
Tuning
intermediate
D# G# C# F# A# D#
Remember Jimi tuned his guitar down a halfstep so you must do the same


g-12--11----------------------12-----------------|
d---------12--11---11-12--13--14-----------------|
a-------------------0--0---0---0-----------------|
e------------------------------------------------|

(There is a slight variation on the second part of the opening)
g-12--11-----------------------------------------|
d---------12--11---11-12--13--14-----------------|
a-------------------0--0---0---0-----------------|
e------------------------------------------------|


g------------------------------------------------|
d------5-----------------------------------------|
a-7--7---7-5-3------------5--------(3)-----------|
e---------------5-5---7-7---7-5-3-0-0------------|


g------------------------------------------------|
d------------------------------------------------|
a-------------7979797----------------------------|
e-0-0-7-7-9-9------------------------------------|
(on that part on the a string be sure not trill but to hit every note)
Suggest correction
Give kudos to tab author, rate the tab!
1 2 3 4 5
comments
print report bad tab
guest
You may want to rate the tab now too:
select rating
Wanna post a correction for this tab? Suggest correction