Oops, an error
Loading. Please wait.

Crash Landing Tab

version 1
version 1

Intro

Whole song

79 views 3 this week
no commentswrite comment
1 2 3 4 5
3 more votes to show rating
add to favorites
launch autoscroll
font size
0
reset
how to read this tab
guitar tuner
Autoscroll
slow
fast
+/-
esc
set tempo
stop
Help us to improve Ultimate-Guitar.com Take our survey!
×
Author
Difficulty
novice
I have an idea of how the chorus and stuff goes, but I'm going to work on it a little
more just so it sounds as accurate as I can make it. Until then, this is the intro. Jimi usually tuned his
guitar a half-step down but if you don't, then the song won't sound different



[Intro]

D#|--------6-----------|---------------------|---------------------|--------6---------6--|-------------6-----|
A#|------------9-------|---------------------|---------------------|-----------9---5-----|--5--(0)--5-----5--|
F#|--6h8-----------6---|-----------6h8-------|---------------------|--6h8----------------|-------------------|
C#|--------------------|-------6---------0---|--0--0---------------|---------------------|-------------------|
G#|--------------------|--9--------------6---|--7--6---------------|---------------------|-------------------|
D#|--------------------|---------------------|----------9---6------|---------------------|-------------------|

D#|----------------------|----------------------|--------------6-------|----6-----------6----|
A#|--(0)--4p6-------10---|8b--------8----7------|-----4-----------9----|-5----5--(0)--5------|
F#|------------6h8-------|---9---7-----6----5---|-5b------6h8----------|---------------------|
C#|----------------------|----------------------|----------------------|---------------------|
G#|----------------------|----------------------|----------------------|---------------------|
D#|----------------------|----------------------|----------------------|---------------------|

           ...Hey!
D#|----------------------|----------------------|
A#|--5--(0)-5/6--6--6/7--|--7/8-----------------|
F#|----------------------|----------------------|   
C#|----------------------|----------------------|
G#|----------------------|----------------------|
D#|----------------------|----------------------|   



************************************

| (n)  Ghost note
| h    Hammer-on
| p    Pull-off
| b    Bend

************************************
Suggest correction
Give kudos to tab author, rate the tab!
1 2 3 4 5
comments
print report bad tab
guest
You may want to rate the tab now too:
select rating
Wanna post a correction for this tab? Suggest correction