Oops, an error
Loading. Please wait.

Crosstown Traffic Bass Tab

version 1
version 1

Whole song

Interactive

16,854 views 36 this week
1 commentread comment
1 2 3 4 5
accurate
x 4
add to favorites
launch autoscroll
font size
0
reset
guitar tuner
Autoscroll
slow
fast
+/-
esc
set tempo
stop
Help us to improve Ultimate-Guitar.com Take our survey!
×
Author
Difficulty
1.  Intro/Chorus
G]------------3-5---------------------|
D]--------5-------5-----33-----33-----|
A]-3-------------------------3--------|  x3
E]------------------------------------|

2.  Verse

G]---------------------------------------------------------------------------------|
D]-------3-3------------3-3---------1-1*-------------------------------------------|
A]-3-3-----------3-3----------1-1*-------------------------------------------------|
E]----------------------------------------------4-4*--------------3-3-3-3-3-3-3-3--|


(Repeat 1.) 3x

(Repeat 2) 1x

3. During “solo”

G]------------------------------------------|
D]---------3-55---3-555----5-5-----3--------|       2x
A]-------5------5---------5-----5-----------|
E]-3-3--------------------------------------|

(Repeat 1) 1x

4.
G]33-33-33-33-33-33-33-33-33-33---3-----------|
D]--------------------------------------------|
A]--------------------------------------------|
E]--------------------------------------------|

(Repeat 1) 1x
(Repeat 4) 1x
 (Repeat 1) 1x


*-hold note
Suggest correction
comments
print report bad tab
1 comment total.
0 reply
GuitarBassDude 20 wrote on January 5 2008, 11:21 am

awesome! Its perfect!

guest
You may want to rate the tab now too:
select rating
Wanna post a correction for this tab? Suggest correction