Oops, an error
Loading. Please wait.

Crosstown Traffic Bass Tab

version 2
version 2

Whole song

Interactive

5,312 views 21 this week
no commentswrite comment
1 2 3 4 5
accurate
x 4
add to favorites
launch autoscroll
font size
0
reset
guitar tuner
Autoscroll
slow
fast
+/-
esc
set tempo
stop
Help us to improve Ultimate-Guitar.com Take our survey!
×
Intro/Chorus

G:------------------------------------------|
D:------------8-10--------------------------|
A:--------10-------10-----88----88----------| x3
E:-8--------------------------8-------------|

Verse

G:-------------------------------------------------------------------|
D:-------------------------------------------------------------------|
A:-------8-8---------8-8--------6-6+---------------------------------|
E:-8-8----------8-8--------6-6+---------4-4+---------3-3-3-3-3-3-3-3-|

Repeat Chorus 3x

Repeat Verse 1x

During the solo

G:---------------------------------|
D:---------3-55---3-555---5-5----3-|
A:-------5------5-------5-----5----|
E:-3-3-----------------------------|

Repeat Chorus 1x

Bridge

G:-----------------------------------|
D:-88-88-88-88-88-88-88-88-88-88---8-|
A:-----------------------------------|
E:-----------------------------------|

Repeat Chorus 1x

Repeat Bridge 1x

Repeat Chorus 1x

+ = Hold the note

Tab by Scott Guldenzoph
comments
print report bad tab
I want to post or [tab]
guest
You may want to rate the tab now too:
select rating
Please do not post tabs as comments. Select "correction" instead!