Oops, an error
Loading. Please wait.

Driving South Bass Tab

3,215 views 3 this week
2 commentsread comments
1 2 3 4 5
1 last vote to show rating
add to favorites
launch autoscroll
font size
0
reset
guitar tuner
Autoscroll
slow
fast
+/-
esc
set tempo
stop
Help us to improve Ultimate-Guitar.com Take our survey!
×
Song: Driving South
Artist: Jimi Hendrix
Tabbed by: florida656

Hey everyone! I noticed you guys don't have a "Driving South" tab, for either
guitar or bass. Well I came up with a little something for bass, check it out.

G:----------------------------
D:----------------------------
A:---0-0-14---0-0-14---0-0-14-
E:----------------------------

Slight Variation:

G:---------------------------------
D:---------------------------------
A:---0-0-104---0-0-104---0-0-104---
E:---------------------------------

Just repeat 'till your heart's content. Have fun!

Note: The "14" and "104" parts are frets 1 and 4 and the second is frets 1, 0 and
4, respectively. Just to make that clear.
Suggest correction
Give kudos to tab author, rate the tab!
1 2 3 4 5
comments
print report bad tab
2 comments total.
0 reply
~Rock~Guitarist 40 Jul 18, 2005 12:00 AM

thats way off. it is 00305 on the A string.

0 reply
LLVEFREEORDIE 10 Feb 03, 2006 12:17 PM

wrong info on that tab bro
heres what it needs to be:


(E A D G) - 'driving south'

4/4

|--------------------------------------|
|--------------------------------------|
|-----2-4-----2-4-------4-6-----4-6----|
|-4-4-----4-4-------6-6-----6-6--------|

guest
You may want to rate the tab now too:
select rating
Wanna post a correction for this tab? Suggest correction