Oops, an error
Loading. Please wait.

Electric Ladyland Tab

version 2
version 2

Whole song

Interactive

5,441 views 6 this week
1 commentread comment
1 2 3 4 5
1 last vote to show rating
add to favorites
launch autoscroll
font size
0
reset
how to read this tab
guitar tuner
Autoscroll
slow
fast
+/-
esc
set tempo
stop
Help us to improve Ultimate-Guitar.com Take our survey!
×
Author
Difficulty
Tuning
intermediate
D# G# C# F# A# D#
Electric Ladyland (rare instrumental version)


  Tabbed by: Hendrix!

 

e|----------5-x------4h7p4----------7h9p7------------------------|
B|----------5-x----------------------------7-------7-7-7---------|
G|-----6----6-x------------6-------------------6---6-8-6-6\------|
D|-----7----7-x---------------4/6--------------6h9-------9\------|
A|-----7------x---4----------------------------------------------|
E|-----5------x--------------------------------------------------|

e|------5p3--------x------4h7p4----------------------------------|
B|------3--------7-x----------------------------0h10p0----3h5p3p0|
G|------4--------7-x------------6---------2h4----------7---------|
D|------3--------7-x------------------2h4--------------9---------|
A|-----------5-----x---4-----------2-----------------------------|
E|--3-3------------x--------------------------0----------0-------|

e|-------5-x------4h7p4----------------------------5/7\5/7\5-----|
B|-------5-x---------------------7/9\7-------------3/5\3/5\3-----|
G|-------6-x---------------------4/6\4-------------0-------------|
D|-------7-x---------------------6/8\6-------------5/7\5/7\5-----|
A|---------x---4--------4\---------------------------------------|
E|--5------x----------------4------------4-4-3-------------------|

e|---------x------4h7p4----------5/7\5---------------------------|
B|-------7-x---------------------3/5\3---------3h5p3-------------|
G|-------7-x------------6--------0-------------4-----2h4--2------|
D|-------7-x---------------------5/7\5--------------------2h4----|
A|-0-5-----x---4------------2------------------------------------|
E|---------x--------------0--------------0-----------------------|

e|-10--9--------------0-----------5--5-5--5--5-------------------|
B|--------------------------------0--0-0--0--0-----------0h10p0--|
G|--------------------------------4--4-4--4--4-------------------|
D|--------9--7--6--4----4---------0--0-0--0--0------2------------|
A|--------------------------------5--------------/4--------------|
E|-10--9--7--5--4--2--0-2--0-3-3--3-------------------0----------|

e|-------------------------------5---10--9--7----------0---------|
B|--------------2/4--2----3------3-------------------------------|
G|--------------2/4--2------4----4-------------------------------|
D|-------------------------------0-------------7--6-4-----4------|
A|---------------------------------------------------------------|
E|-0-0-0-0-0-0---------0------0----0-10--9--7--5--4-2--0--2--0---|

e|------5--5-5--5--5---------------------------------------------|
B|------0--0-0--0--0---------------------------------------------|
G|------4--4-4--4--4-------7-7---7--------7---7-7--------7---7-7-|
D|------0--0-0--0--0-------7-7---7h9p7----7---7-7------7--7--7-7-|
A|------5---------------/9-----9-------/9---9------7-8-------8-8-|
E|-3-3--3--------------------------------------------------------|

e|-------5--x-x--------------------------------------------------|
B|-------5--x-x---7-----x----------------7\----------------------|
G|-------6--x-x---7--7--x---5--x—-5------7\----------------------|
D|--7----7--x-x---7--7--x---5--x--5------7\----------------------|
A|--7-------------5--5--x---3--x--3------5\----------------------|
E|--5--------------------------------0---------------------------|

Repeat last part 3 times
e|---------------------------------------------------------------|
B|---------------------------------------------------------------|
G|---------------------------------------------------------------|
D|---------------------------------------------------------------|
A|---------------------------------------------------------------|
E|---------------------------------------------------------------|

| /  slide up
| \  slide down
| h  hammer-on
| p  pull-off
| ~  vibrato
| +  harmonic
| x  Mute note
Suggest correction
Give kudos to tab author, rate the tab!
1 2 3 4 5
comments
print report bad tab
1 comment total.
0 reply
scottni2 11 Jul 14, 2013 07:17 PM

Beautiful! Jimi would be proud. This version of the song is one of my favorite of his catalog, and this tab enhances my quality of life. Kudos

guest
You may want to rate the tab now too:
select rating
Wanna post a correction for this tab? Suggest correction