Oops, an error
Loading. Please wait.

Ezy Ryder Bass Tab

version 1
version 1

Whole song

Interactive

3,662 views 18 this week
no commentswrite comment
1 2 3 4 5
2 more votes to show rating
add to favorites
launch autoscroll
font size
0
reset
guitar tuner
Autoscroll
slow
fast
+/-
esc
set tempo
stop
Help us to improve Ultimate-Guitar.com Take our survey!
×
Author
Difficulty
Tuning
novice
D# G# C# F# A# D#
tuning: Eb Ab Db Gb

this is the main riff:
|:--------------|------------|--------------|-----------------:|
|:-2------------|---1--2-----|-2------------|-----------------:|
|:----------2-3-|-5----------|----------2-3-|-5-4-5-4-5-4-5-4-:|
|:---0-2-3------|--------5-3-|---0-2-3------|-----------------:|

at 1:26 it goes from:
|:-----------------:|
|:-----------------:| 2x
|:-5-4-5-4-5-4-5-4-:|
|:-----------------:|

to:
|:-----------------:|
|:-----------------:| 2x
|:-7-6-7-6-7-6-7-6-:|
|:-----------------:|

then a break and some riffs in Eb minor pentatonic,
until 2:09:
|:-------------------------:|
|:-------12-14-------12-14-:|
|:-------------------------:|
|:-10-12-------10-12-------:|

and then back to the main riff.

have fun

Suggest correction
Give kudos to tab author, rate the tab!
1 2 3 4 5
comments
print report bad tab
guest
You may want to rate the tab now too:
select rating
Wanna post a correction for this tab? Suggest correction